Login or Register to remove this ad.

Suwa Foughten Field ~ Venerable Ancient Battlefield (UI-70 ver) (Touhou 10: Mountain of Faith) Bass/Guitar Tab

Submitted: Apr 22, 2018 by Jacob31593 (Last updated: Apr 22, 2018)

5
Average: 5 (1 vote)
Download | Listen
Game: Touhou 10: Mountain of Faith
Composer(s): ZUN
Style: 2 or more instruments, Alternate picking, Arrangement
Series: Touhou

Click here for a video example.

AutoScroll: Slow | Medium | Fast

Suwa Foughten Field ~ Venerable Ancient Battlefield
From Touhou 10 Mountain of Faith
Composed by Zun
Arranged by UI-70
Album UI-70 - Riddles Covered in Flowers

i tabbed this like a hundred years ago but i couldnt get the guitar solo down
today im big enough of a man to admit it, i'll never get the guitar solo down
take what you can get you scavengers you win im going to go cry

Track 1
E||-------||--------|-------|-------|-------|-------|-------|-------|-------|
B||-------||--------|-------|-------|-------|-------|-------|-------|-------|
G||-------||*-------|-------|-------|-------|-------|-------|-------|-------|
D||-------||*-------|-------|-------|-------|-------|-------|-------|-------|
A||-------||--------|-------|-------|-------|-------|-------|-------|-------|
E||-------||--------|-------|-------|-------|-------|-------|-------|-------|


     E   S S S S S  S     E   S S  S S S S       Q     S S  S S Q.      E    
-------------------------------------------|--------------------------------|
--8g10--10------------------------10-------|--------------------------------|
-----------7---7-9-10-10g12--12--------7---|--8g10~----9--------------------|
-------------------------------------------|---------------10---7~------L\--|
-------------------------------------------|--------------------------------|
-------------------------------------------|--------------------------------|


     E   S S S S S  S     E   S S  S S S S       H          Q     S  S  S S  
-------------------------------------------|--------------------------------|
--8g10--10------------------------10-------|--8g12~--------11~----L-11-13---|
-----------7-7-7-9-10-10g12--12--------7---|--------------------------------|
-------------------------------------------|--------------------------------|
-------------------------------------------|--------------------------------|
-------------------------------------------|--------------------------------|


     E   S S S S S  S     E   S S  S S S S       Q      S S  S S  Q.      E    
-------------------------------------------|----------------------------------|
--8g10--10------------------------10-------|----------------------------------|
-----------7-7-7-9-10-10g12--12--------7---|--8g13~----12---10----------------|
-------------------------------------------|---------------------12~------L\--|
-------------------------------------------|----------------------------------|
-------------------------------------------|----------------------------------|


     E   S S S S S  S     E   S S  S S S S       H          Q     S  S  S S        W                  
-------------------------------------------|--------------------------------|------------------------|
--8g10--10------------------------10-------|--8g12~--------11~----L-11-13---|--13g15~----------------|
-----------7-7-7-9-10-10g12--12--------7---|--------------------------------|------------------------|
-------------------------------------------|--------------------------------|------------------------|
-------------------------------------------|--------------------------------|------------------------|
-------------------------------------------|--------------------------------|------------------------|


  W                                                                                                 
-------------------|-------------------|-------------------|-------------------|-------------------|
--L----------------|-------------------|-------------------|-------------------|-------------------|
-------------------|-------------------|-------------------|-------------------|-------------------|
-------------------|-------------------|-------------------|-------------------|-------------------|
-------------------|-------------------|-------------------|-------------------|-------------------|
-------------------|-------------------|-------------------|-------------------|-------------------|


                                             E   S S S S S  S     E   S S  S S S S  
-------------------|-------------------|-------------------------------------------|
-------------------|-------------------|--8g10--10------------------------10-------|
-------------------|-------------------|-----------7---7-9-10-10g12--12--------7---|
-------------------|-------------------|-------------------------------------------|
-------------------|-------------------|-------------------------------------------|
-------------------|-------------------|-------------------------------------------|


     Q     S S  S S Q.      E         E   S S S S S  S     E   S S  S S S S       H          Q     S  S  S S  
--------------------------------|-------------------------------------------|--------------------------------|
--------------------------------|--8g10--10------------------------10-------|--8g12~--------11~----L-11-13---|
--8g10~----9--------------------|-----------7-7-7-9-10-10g12--12--------7---|--------------------------------|
---------------10---7~------L\--|-------------------------------------------|--------------------------------|
--------------------------------|-------------------------------------------|--------------------------------|
--------------------------------|-------------------------------------------|--------------------------------|


     E   S S S S S  S     E   S S  S S S S       Q      S S  S S  Q.      E    
-------------------------------------------|----------------------------------|
--8g10--10------------------------10-------|----------------------------------|
-----------7-7-7-9-10-10g12--12--------7---|--8g13~----12---10----------------|
-------------------------------------------|---------------------12~------L\--|
-------------------------------------------|----------------------------------|
-------------------------------------------|----------------------------------|


     E   S S S S S  S     E   S S  S S S S       H          Q     S S  S S  
-------------------------------------------|-------------------------------|
--8g10--10------------------------10-------|--8g12~--------11~----L--------|
-----------7-7-7-9-10-10g12--12--------7---|------------------------7-10---|
-------------------------------------------|-------------------------------|
-------------------------------------------|-------------------------------|
-------------------------------------------|-------------------------------|


   Q     S S   S S  Q     S  T   S.S     W                     Q     S  E  S  Q     S     E.   
-------------------------------------|---------------------|-----------10--L\-8~----L-12g13---|
-----------8s-11---10~------10s-13---|--11~----------------|--11~----L------------------------|
--12~----L---------------------------|---------------------|----------------------------------|
-------------------------------------|---------------------|----------------------------------|
-------------------------------------|---------------------|----------------------------------|
-------------------------------------|---------------------|----------------------------------|


   H.            E   E         Q     S S   S S  Q     S  T  S.S     W                  
--10~------------L\-----|---------------------------------------|---------------------|
------------------------|--------------8s-11---10~------10-13---|--11~----------------|
------------------------|--10g12~----L--------------------------|---------------------|
------------------------|---------------------------------------|---------------------|
------------------------|---------------------------------------|---------------------|
------------------------|---------------------------------------|---------------------|


   Q     S  E  S  Q     S     E  S     H.            E   E        H         Q     S  T   S.S  
-----------10--L\-8~----L-12g13----|--10~------------L\-----|--8g10~--------8~----L-10s-13---|
--11~----L-------------------------|------------------------|--------------------------------|
-----------------------------------|------------------------|--------------------------------|
-----------------------------------|------------------------|--------------------------------|
-----------------------------------|------------------------|--------------------------------|
-----------------------------------|------------------------|--------------------------------|


   H         Q    S  S  S S        Q     S  S  S S  E   S  S  S  S  S  S     Q.      S S    Q     E  E    
--10~--------L----L-10-13---|--13g15~----L-13-15---13-----------------13-|--11~------L-8-8g10~----L--L\--|
----------------------------|--------------------------13-11-10-11-13----|-------------------------------|
----------------------------|--------------------------------------------|-------------------------------|
----------------------------|--------------------------------------------|-------------------------------|
----------------------------|--------------------------------------------|-------------------------------|
----------------------------|--------------------------------------------|-------------------------------|


   H          Q     S  S  S S    H            H             H          Q     S  S  S  S  
--10~-------------------------|------------8g15~--------|--15~--------13~----L-13-18-17-|
-------------13~----L-11-10---|--8~---------------------|-------------------------------|
------------------------------|-------------------------|-------------------------------|
------------------------------|-------------------------|-------------------------------|
------------------------------|-------------------------|-------------------------------|
------------------------------|-------------------------|-------------------------------|


   H.            E  E                                                                                    
--15~------------L--L\--|-------------------|-------------------|-------------------|-------------------|
------------------------|-------------------|-------------------|-------------------|-------------------|
------------------------|-------------------|-------------------|-------------------|-------------------|
------------------------|-------------------|-------------------|-------------------|-------------------|
------------------------|-------------------|-------------------|-------------------|-------------------|
------------------------|-------------------|-------------------|-------------------|-------------------|


-------------------|-------------------|-------------------|-------------------|
-------------------|-------------------|-------------------|-------------------|
-------------------|-------------------|-------------------|-------------------|
-------------------|-------------------|-------------------|-------------------|
-------------------|-------------------|-------------------|-------------------|
-------------------|-------------------|-------------------|-------------------|


     E   S S S S S  S     E   S S  S S S S       Q     S S  S S Q.      E    
-------------------------------------------|--------------------------------|
--8g10--10------------------------10-------|--------------------------------|
-----------7---7-9-10-10g12--12--------7---|--8g10~----9--------------------|
-------------------------------------------|---------------10---7~------L\--|
-------------------------------------------|--------------------------------|
-------------------------------------------|--------------------------------|


     E   S S S S S  S     E   S S  S S S S       H          Q     S  S  S S  
-------------------------------------------|--------------------------------|
--8g10--10------------------------10-------|--8g12~--------11~----L-11-13---|
-----------7-7-7-9-10-10g12--12--------7---|--------------------------------|
-------------------------------------------|--------------------------------|
-------------------------------------------|--------------------------------|
-------------------------------------------|--------------------------------|


     E   S S S S S  S     E   S S  S S S S       Q      S S  S S  Q.      E    
-------------------------------------------|----------------------------------|
--8g10--10------------------------10-------|----------------------------------|
-----------7-7-7-9-10-10g12--12--------7---|--8g13~----12---10----------------|
-------------------------------------------|---------------------12~------L\--|
-------------------------------------------|----------------------------------|
-------------------------------------------|----------------------------------|


     E   S S S S S  S     E   S S  S S S S       H          Q     S S  S S  
-------------------------------------------|-------------------------------|
--8g10--10------------------------10-------|--8g12~--------11~----L--------|
-----------7-7-7-9-10-10g12--12--------7---|------------------------7-10---|
-------------------------------------------|-------------------------------|
-------------------------------------------|-------------------------------|
-------------------------------------------|-------------------------------|


   Q     S S   S S  Q     S  T   S.S     W                     Q     S  E  S  Q     S     E.   
-------------------------------------|---------------------|-----------10--L\-8~----L-12g13---|
-----------8s-11---10~------10s-13---|--11~----------------|--11~----L------------------------|
--12~----L---------------------------|---------------------|----------------------------------|
-------------------------------------|---------------------|----------------------------------|
-------------------------------------|---------------------|----------------------------------|
-------------------------------------|---------------------|----------------------------------|


   H.            E   E         Q     S S   S S  Q     S  T  S.S     W                  
--10~------------L\-----|---------------------------------------|---------------------|
------------------------|--------------8s-11---10~------10-13---|--11~----------------|
------------------------|--10g12~----L--------------------------|---------------------|
------------------------|---------------------------------------|---------------------|
------------------------|---------------------------------------|---------------------|
------------------------|---------------------------------------|---------------------|


   Q     S  E  S  Q     S     E  S     H.            E   E        H         Q     S  T   S.S  
-----------10--L\-8~----L-12g13----|--10~------------L\-----|--8g10~--------8~----L-10s-13---|
--11~----L-------------------------|------------------------|--------------------------------|
-----------------------------------|------------------------|--------------------------------|
-----------------------------------|------------------------|--------------------------------|
-----------------------------------|------------------------|--------------------------------|
-----------------------------------|------------------------|--------------------------------|


   H         Q    S  S  S S        Q     S  S  S S  E   S  S  S  S  S  S     Q.      S S    Q     E  E    
--10~--------L----L-10-13---|--13g15~----L-13-15---13-----------------13-|--11~------L-8-8g10~----L--L\--|
----------------------------|--------------------------13-11-10-11-13----|-------------------------------|
----------------------------|--------------------------------------------|-------------------------------|
----------------------------|--------------------------------------------|-------------------------------|
----------------------------|--------------------------------------------|-------------------------------|
----------------------------|--------------------------------------------|-------------------------------|


   H          Q     S  S  S S    H            H             H          Q     S  S  S  S  
--10~-------------------------|------------8g15~--------|--15~--------13~----L-13-18-17-|
-------------13~----L-11-10---|--8~---------------------|-------------------------------|
------------------------------|-------------------------|-------------------------------|
------------------------------|-------------------------|-------------------------------|
------------------------------|-------------------------|-------------------------------|
------------------------------|-------------------------|-------------------------------|


   H.            E  E                                                                                        
--15~------------L--L\--|-----|-----|-----|-----|-----|-----|-----|-----|-----|-----|-----|-----|-----|-----|
------------------------|-----|-----|-----|-----|-----|-----|-----|-----|-----|-----|-----|-----|-----|-----|
------------------------|-----|-----|-----|-----|-----|-----|-----|-----|-----|-----|-----|-----|-----|-----|
------------------------|-----|-----|-----|-----|-----|-----|-----|-----|-----|-----|-----|-----|-----|-----|
------------------------|-----|-----|-----|-----|-----|-----|-----|-----|-----|-----|-----|-----|-----|-----|
------------------------|-----|-----|-----|-----|-----|-----|-----|-----|-----|-----|-----|-----|-----|-----|


        H        Q    S S  S S     Q     S S   S S  Q     S  T   S.S     W                  
-----|-------------------------|-------------------------------------|---------------------|
-----|-------------------------|-----------8s-11---10~------10s-13---|--11~----------------|
-----|--------------------10---|--12~----L---------------------------|---------------------|
-----|-------------------------|-------------------------------------|---------------------|
-----|-------------------------|-------------------------------------|---------------------|
-----|-------------------------|-------------------------------------|---------------------|


   Q     S  E  S  Q     S     E.      H.            E   E         Q     S S   S S  Q     S  T  S.S  
-----------10--L\-8~----L-12g13---|--10~------------L\-----|---------------------------------------|
--11~----L------------------------|------------------------|--------------8s-11---10~------10-13---|
----------------------------------|------------------------|--10g12~----L--------------------------|
----------------------------------|------------------------|---------------------------------------|
----------------------------------|------------------------|---------------------------------------|
----------------------------------|------------------------|---------------------------------------|


   W                     Q     S  E  S  Q     S     E  S     H.            E   E   
---------------------|-----------10--L\-8~----L-12g13----|--10~------------L\-----|
--11~----------------|--11~----L-------------------------|------------------------|
---------------------|-----------------------------------|------------------------|
---------------------|-----------------------------------|------------------------|
---------------------|-----------------------------------|------------------------|
---------------------|-----------------------------------|------------------------|


     H         Q     S  T   S.S     H         Q    S  S  S S        Q     S  S  S S  E   S  S  S  S  S  S  
--8g10~--------8~----L-10s-13---|--10~--------L----L-10-13---|--13g15~----L-13-15---13-----------------13-|
--------------------------------|----------------------------|--------------------------13-11-10-11-13----|
--------------------------------|----------------------------|--------------------------------------------|
--------------------------------|----------------------------|--------------------------------------------|
--------------------------------|----------------------------|--------------------------------------------|
--------------------------------|----------------------------|--------------------------------------------|


   Q.      S S    Q     E  E       H          Q     S  S  S S    H            H          
--11~------L-8-8g10~----L--L\--|--10~-------------------------|------------8g15~--------|
-------------------------------|-------------13~----L-11-10---|--8~---------------------|
-------------------------------|------------------------------|-------------------------|
-------------------------------|------------------------------|-------------------------|
-------------------------------|------------------------------|-------------------------|
-------------------------------|------------------------------|-------------------------|


   H          Q     S  S  S  S     H          Q.      E       H          Q     S   S  S S  
--15~--------13~----L-13-18-17-|--15~---------------------|-------------------------------|
-------------------------------|-------------15~------L\--|--15~--------13~----L\-11-10---|
-------------------------------|--------------------------|-------------------------------|
-------------------------------|--------------------------|-------------------------------|
-------------------------------|--------------------------|-------------------------------|
-------------------------------|--------------------------|-------------------------------|


   H             H             H          Q     S  S  S  S     W                    
-------------12g15~--------|--15~--------13~----L-13-18-17-|--15~-----------------||
---------------------------|-------------------------------|----------------------||
--12~----------------------|-------------------------------|---------------------*||
---------------------------|-------------------------------|---------------------*||
---------------------------|-------------------------------|----------------------||
---------------------------|-------------------------------|----------------------||

bet you cant play this rhythm 1 

                E   S S S S S S S S S S S S S S     E   S S S S S S S S S S S S S S  
E||-------||------------------------------------|-----------------------------------|
B||-------||------------------------------------|-----------------------------------|
G||-------||*-----------------------------------|-----------------------------------|
D||-------||*--12--12-3-3-5-5-3-3-0-0-3-3-5-7---|--12--12-3-3-5-5-3-3-0-0-3-3-5-7---|
A||-------||---12-----5---7---5---1---5---5-5---|--12-----5---5---5---1---5---5-5---|
E||-------||------------------------------------|-----------------------------------|


   E   S S S S S S S S S S S S S S     E   S S S S S S S S S S S S S S     E   S S S S S S S S S S S S S S  
-----------------------------------|-----------------------------------|-----------------------------------|
-----------------------------------|-----------------------------------|-----------------------------------|
-----------------------------------|-----------------------------------|-----------------------------------|
--12--12-3-3-5-5-3-3-0-0-3-3-5-7---|--12--12-3-3-5-5-3-3-0-0-3-3-5-7---|--12--12-3-3-5-5-3-3-0-0-3-3-5-7---|
--12-----5---5---5---1---5---5-5---|--12-----5---5---5---1---5---5-5---|--12-----5---5---5---1---5---5-5---|
-----------------------------------|-----------------------------------|-----------------------------------|


   E   S S S S S S S S S S S S S S     E   S S S S S S S S S S S S S S     E   S S S S S S S S S S Q     
-----------------------------------|-----------------------------------|--------------------------------|
-----------------------------------|-----------------------------------|--------------------------------|
-----------------------------------|-----------------------------------|--------------------------------|
--12--12-3-3-5-5-3-3-0-0-3-3-5-7---|--12--12-3-3-5-5-3-3-0-0-3-3-5-7---|--12--12-3-3-5-5-3-3-0-0-3------|
--12-----5---5---5---1---5---5-5---|--12-----5---5---5---1---5---5-5---|--12-----5---5---5---1---5------|
-----------------------------------|-----------------------------------|--------------------------------|


                                                     E   S S S S S S S S S S S S S S  
-------|-----|-----|-----|-----|-----|-----|-----|-----------------------------------|
-------|-----|-----|-----|-----|-----|-----|-----|-----------------------------------|
-------|-----|-----|-----|-----|-----|-----|-----|-----------------------------------|
-------|-----|-----|-----|-----|-----|-----|-----|--12--12-3-3-5-5-3-3-0-0-3-3-5-7---|
-------|-----|-----|-----|-----|-----|-----|-----|--12-----5---5---5---1---5---5-5---|
-------|-----|-----|-----|-----|-----|-----|-----|-----------------------------------|


   E   S S S S S S S S S S S S S S     E   S S S S S S S S S S S S S S     E   S S S S S S S S S S S S S S  
-----------------------------------|-----------------------------------|-----------------------------------|
-----------------------------------|-----------------------------------|-----------------------------------|
-----------------------------------|-----------------------------------|-----------------------------------|
--12--12-3-3-5-5-3-3-0-0-3-3-5-7---|--12--12-3-3-5-5-3-3-0-0-3-3-5-7---|--12--12-3-3-5-5-3-3-0-0-3-3-5-7---|
--12-----5---5---5---1---5---5-5---|--12-----5---5---5---1---5---5-5---|--12-----5---5---5---1---5---5-5---|
-----------------------------------|-----------------------------------|-----------------------------------|


   E   S S S S S S S S S S S S S S     E   S S S S S S S S S S S S S S     E   S S S S S S S S S S S S S S  
-----------------------------------|-----------------------------------|-----------------------------------|
-----------------------------------|-----------------------------------|-----------------------------------|
-----------------------------------|-----------------------------------|-----------------------------------|
--12--12-3-3-5-5-3-3-0-0-3-3-5-7---|--12--12-3-3-5-5-3-3-0-0-3-3-5-7---|--12--12-3-3-5-5-3-3-0-0-3-3-5-7---|
--12-----5---5---5---1---5---5-5---|--12-----5---5---5---1---5---5-5---|--12-----5---5---5---1---5---5-5---|
-----------------------------------|-----------------------------------|-----------------------------------|


   E   S S S S S S S S S S Q                                                 Q    Q    Q    S S  S S  
--------------------------------|-----|-----|-----|-----|-----|-----|-----|--------------------------|
--------------------------------|-----|-----|-----|-----|-----|-----|-----|--------------------------|
--------------------------------|-----|-----|-----|-----|-----|-----|-----|--------------------------|
--12--12-3-3-5-5-3-3-0-0-3------|-----|-----|-----|-----|-----|-----|-----|-------------------8-12---|
--12-----5---5---5---1---5------|-----|-----|-----|-----|-----|-----|-----|--------------------------|
--------------------------------|-----|-----|-----|-----|-----|-----|-----|--------------------------|


   Q     S  S   S S  Q     S  T   S.S     W                     Q     S  E  S   Q     S     E.   
--------------------------------------|---------------------|-----------------------------------|
--------------------------------------|---------------------|-----------11--L\-10~----L-12g13---|
-----------10s-12---10~------11s-14---|--12~----------------|--12~----L-------------------------|
--13~----L----------------------------|---------------------|-----------------------------------|
--------------------------------------|---------------------|-----------------------------------|
--------------------------------------|---------------------|-----------------------------------|


   H.            E   E      Q     S  S   S S  Q     S  T   S.S     W                  
------------------------|--------------------------------------|---------------------|
--11~------------L\-----|--------------------------------------|---------------------|
------------------------|-----------10s-12---10~------11s-14---|--12~----------------|
------------------------|--13~----L----------------------------|---------------------|
------------------------|--------------------------------------|---------------------|
------------------------|--------------------------------------|---------------------|


   Q     S  E  S   Q     S     E.      H.            E   E      H          Q     S  T   S.S  
-----------------------------------|------------------------|-------------------------------|
-----------11--L\-10~----L-12g13---|--11~------------L\-----|--11~--------10~----L-10s-13---|
--12~----L-------------------------|------------------------|-------------------------------|
-----------------------------------|------------------------|-------------------------------|
-----------------------------------|------------------------|-------------------------------|
-----------------------------------|------------------------|-------------------------------|


   H         Q    S  S  S S     Q     S  S  S S  E   S S  S S  S  S     Q.      S  S  Q     E  E    
----------------------------|---------------------------------------|------------------------------|
--11~--------L----L-11-13---|--16~----L-15-16---13--10-8----8-10-13-|--13~------L-10-11~----L--L\--|
----------------------------|----------------------------10---------|------------------------------|
----------------------------|---------------------------------------|------------------------------|
----------------------------|---------------------------------------|------------------------------|
----------------------------|---------------------------------------|------------------------------|


   H          Q     S S  S S    H          H             H          Q     S  S  S S     H.            E  E    
-----------------------------|------------10~--------|-------------------------10-8-|--10~------------L--L\--|
--11~--------10~----L-8------|-----------------------|--11~--------10~----L-10------|------------------------|
------------------------10---|--7~-------------------|------------------------------|------------------------|
-----------------------------|-----------------------|------------------------------|------------------------|
-----------------------------|-----------------------|------------------------------|------------------------|
-----------------------------|-----------------------|------------------------------|------------------------|


   E   S S S S S S S S S S S S S S     E   S S S S S S S S S S S S S S     E   S S S S S S S S S S S S S S  
-----------------------------------|-----------------------------------|-----------------------------------|
-----------------------------------|-----------------------------------|-----------------------------------|
-----------------------------------|-----------------------------------|-----------------------------------|
--12--12-3-3-5-5-3-3-0-0-3-3-5-7---|--12--12-3-3-5-5-3-3-0-0-3-3-5-7---|--12--12-3-3-5-5-3-3-0-0-3-3-5-7---|
--12-----5---5---5---1---5---5-5---|--12-----5---5---5---1---5---5-5---|--12-----5---5---5---1---5---5-5---|
-----------------------------------|-----------------------------------|-----------------------------------|


   E   S S S S S S S S S S S S S S     E   S S S S S S S S S S S S S S     E   S S S S S S S S S S S S S S  
-----------------------------------|-----------------------------------|-----------------------------------|
-----------------------------------|-----------------------------------|-----------------------------------|
-----------------------------------|-----------------------------------|-----------------------------------|
--12--12-3-3-5-5-3-3-0-0-3-3-5-7---|--12--12-3-3-5-5-3-3-0-0-3-3-5-7---|--12--12-3-3-5-5-3-3-0-0-3-3-5-7---|
--12-----5---5---5---1---5---5-5---|--12-----5---5---5---1---5---5-5---|--12-----5---5---5---1---5---5-5---|
-----------------------------------|-----------------------------------|-----------------------------------|


   E   S S S S S S S S S S S S S S     E   S S S S S S S S S S Q                                         
-----------------------------------|--------------------------------|-----|-----|-----|-----|-----|-----|
-----------------------------------|--------------------------------|-----|-----|-----|-----|-----|-----|
-----------------------------------|--------------------------------|-----|-----|-----|-----|-----|-----|
--12--12-3-3-5-5-3-3-0-0-3-3-5-7---|--12--12-3-3-5-5-3-3-0-0-3------|-----|-----|-----|-----|-----|-----|
--12-----5---5---5---1---5---5-5---|--12-----5---5---5---1---5------|-----|-----|-----|-----|-----|-----|
-----------------------------------|--------------------------------|-----|-----|-----|-----|-----|-----|


        Q    Q    Q    S S  S S     Q     S  S   S S  Q     S  T   S.S     W                  
-----|--------------------------|--------------------------------------|---------------------|
-----|--------------------------|--------------------------------------|---------------------|
-----|--------------------------|-----------10s-12---10~------11s-14---|--12~----------------|
-----|-------------------8-12---|--13~----L----------------------------|---------------------|
-----|--------------------------|--------------------------------------|---------------------|
-----|--------------------------|--------------------------------------|---------------------|


   Q     S  E  S   Q     S     E.      H.            E   E      Q     S  S   S S  Q     S  T   S.S  
-----------------------------------|------------------------|--------------------------------------|
-----------11--L\-10~----L-12g13---|--11~------------L\-----|--------------------------------------|
--12~----L-------------------------|------------------------|-----------10s-12---10~------11s-14---|
-----------------------------------|------------------------|--13~----L----------------------------|
-----------------------------------|------------------------|--------------------------------------|
-----------------------------------|------------------------|--------------------------------------|


   W                     Q     S  E  S   Q     S     E.      H.            E   E   
---------------------|-----------------------------------|------------------------|
---------------------|-----------11--L\-10~----L-12g13---|--11~------------L\-----|
--12~----------------|--12~----L-------------------------|------------------------|
---------------------|-----------------------------------|------------------------|
---------------------|-----------------------------------|------------------------|
---------------------|-----------------------------------|------------------------|


   H          Q     S  T   S.S     H         Q    S  S  S S     Q     S  S  S S  E   S S  S S  S  S  
-------------------------------|----------------------------|---------------------------------------|
--11~--------10~----L-10s-13---|--11~--------L----L-11-13---|--16~----L-15-16---13--10-8----8-10-13-|
-------------------------------|----------------------------|----------------------------10---------|
-------------------------------|----------------------------|---------------------------------------|
-------------------------------|----------------------------|---------------------------------------|
-------------------------------|----------------------------|---------------------------------------|


   Q.      S  S  Q     E  E       H          Q     S S  S S    H          H          
------------------------------|-----------------------------|------------10~--------|
--13~------L-10-11~----L--L\--|--11~--------10~----L-8------|-----------------------|
------------------------------|------------------------10---|--7~-------------------|
------------------------------|-----------------------------|-----------------------|
------------------------------|-----------------------------|-----------------------|
------------------------------|-----------------------------|-----------------------|


   H          Q     S  S  S S     H.            E  E                                                          
-------------------------10-8-|--10~------------L--L\--|-----|-----|-----|-----|-----|-----|-----|-----|-----|
--11~--------10~----L-10------|------------------------|-----|-----|-----|-----|-----|-----|-----|-----|-----|
------------------------------|------------------------|-----|-----|-----|-----|-----|-----|-----|-----|-----|
------------------------------|------------------------|-----|-----|-----|-----|-----|-----|-----|-----|-----|
------------------------------|------------------------|-----|-----|-----|-----|-----|-----|-----|-----|-----|
------------------------------|------------------------|-----|-----|-----|-----|-----|-----|-----|-----|-----|


              Q    Q    Q    E   S  S     Q.       S   S  S S   S.T  S.T  S.T  
-----|-----|--------------------------|---------------------------------------|
-----|-----|--------------------18-15-|--15~----------------------------------|
-----|-----|--------------------------|-----------14s-15-14-L\-12---12---10---|
-----|-----|--------------------------|---------------------------------------|
-----|-----|--------------------------|---------------------------------------|
-----|-----|--------------------------|---------------------------------------|


     Q.      S  S Q.       S  S     Q.       S   S  S S   S.T  S.T  S.T       E   S  S  H        E    S S  
--------------------------------|---------------------------------------|---------------------------------|
--------------------------18-15-|--15~----------------------------------|--------13-----------------------|
--8g10------12-10-7~------------|-----------14s-15-14-L\-12---12---10---|--8g10-----10-12--------L\-------|
--------------------------------|---------------------------------------|----------------------------12---|
--------------------------------|---------------------------------------|---------------------------------|
--------------------------------|---------------------------------------|---------------------------------|


   Q     S  S   S S  Q     S  T   S.S     W                     Q     S  E  S   Q     S     E.   
--------------------------------------|---------------------|-----------------------------------|
--------------------------------------|---------------------|-----------11--L\-10~----L-12g13---|
-----------10s-12---10~------11s-14---|--12~----------------|--12~----L-------------------------|
--13~----L----------------------------|---------------------|-----------------------------------|
--------------------------------------|---------------------|-----------------------------------|
--------------------------------------|---------------------|-----------------------------------|


   H.            E   E      Q     S  S   S S  Q     S  T   S.S     W                  
------------------------|--------------------------------------|---------------------|
--11~------------L\-----|--------------------------------------|---------------------|
------------------------|-----------10s-12---10~------11s-14---|--12~----------------|
------------------------|--13~----L----------------------------|---------------------|
------------------------|--------------------------------------|---------------------|
------------------------|--------------------------------------|---------------------|


   Q     S  E  S   Q     S     E.      H.            E   E      H          Q     S  T   S.S  
-----------------------------------|------------------------|-------------------------------|
-----------11--L\-10~----L-12g13---|--11~------------L\-----|--11~--------10~----L-10s-13---|
--12~----L-------------------------|------------------------|-------------------------------|
-----------------------------------|------------------------|-------------------------------|
-----------------------------------|------------------------|-------------------------------|
-----------------------------------|------------------------|-------------------------------|


   H         Q    S  S  S S     Q     S  S  S S  E   S S  S S  S  S     Q.      S  S  Q     E  E    
----------------------------|---------------------------------------|------------------------------|
--11~--------L----L-11-13---|--16~----L-15-16---13--10-8----8-10-13-|--13~------L-10-11~----L--L\--|
----------------------------|----------------------------10---------|------------------------------|
----------------------------|---------------------------------------|------------------------------|
----------------------------|---------------------------------------|------------------------------|
----------------------------|---------------------------------------|------------------------------|


   H          Q     S S  S S    H          H             H          Q     S  S  S S  
-----------------------------|------------10~--------|-------------------------10-8-|
--11~--------10~----L-8------|-----------------------|--11~--------10~----L-10------|
------------------------10---|--7~-------------------|------------------------------|
-----------------------------|-----------------------|------------------------------|
-----------------------------|-----------------------|------------------------------|
-----------------------------|-----------------------|------------------------------|


   H          Q.      E                              
--10~---------------------|-----|-----|-----|------||
-------------11~------L\--|-----|-----|-----|------||
--------------------------|-----|-----|-----|-----*||
--------------------------|-----|-----|-----|-----*||
--------------------------|-----|-----|-----|------||
--------------------------|-----|-----|-----|------||

bet you cant play this rhythm 2

               E  S S S S S S S S S S S S E     E  S S S S S S S S S S S S E   
E||-------||---------------------------------|--------------------------------|
B||-------||---------------------------------|--------------------------------|
G||-------||*--------------------------------|--------------------------------|
D||-------||*--------------------------------|--------------------------------|
A||-------||---5-----------------------------|--5-----------------------------|
D||-------||---0--0-3-0-5-0-7-0-8-0-7-0-5-3--|--0--0-3-0-5-0-7-0-8-0-7-0-5-3--|


  E  S S S S S S S S S S S S E     E  S S S S S S S S S S S S E     E  S S S S S S S S S S S S E   
--------------------------------|--------------------------------|--------------------------------|
--------------------------------|--------------------------------|--------------------------------|
--------------------------------|--------------------------------|--------------------------------|
--------------------------------|--------------------------------|--------------------------------|
--5-----------------------------|--5-----------------------------|--5-----------------------------|
--0--0-3-0-5-0-7-0-8-0-7-0-5-3--|--0--0-3-0-5-0-7-0-8-0-7-0-5-3--|--0--0-3-0-5-0-7-0-8-0-7-0-5-3--|


  E  S S S S S S S S S S S S E     E  S S S S S S S S S S S S E     E  S S S S S S S S S S Q     
--------------------------------|--------------------------------|------------------------------|
--------------------------------|--------------------------------|------------------------------|
--------------------------------|--------------------------------|------------------------------|
--------------------------------|--------------------------------|------------------------------|
--5-----------------------------|--5-----------------------------|--5---------------------------|
--0--0-3-0-5-0-7-0-8-0-7-0-5-3--|--0--0-3-0-5-0-7-0-8-0-7-0-5-3--|--0--0-3-0-5-0-7-0-8-0-7------|


  E  S S S S E  E  S S S S E     E  S S E  S S E  S S S S S S    E  S S S S E  E  S S S S E   
------------------------------|-------------------------------|------------------------------|
------------------------------|-------------------------------|------------------------------|
--7----------7--5----------5--|--3------5---------------------|--7----------7--5----------5--|
--7----------7--5----------5--|--3------5---------------------|--7----------7--5----------5--|
--5--5-5-5-5-5--3--3-3-3-3-3--|--1--1-1-3--3-3----------------|--5--5-5-5-5-5--3--3-3-3-3-3--|
------------------------------|----------------0--0-3-0-5-0-0-|------------------------------|


  E  S S S S E  E  S S S S E     E  S S S S E  E  S S S S E     E  S S E  S S E  S S S S S S  
------------------------------|------------------------------|-------------------------------|
------------------------------|------------------------------|-------------------------------|
--4----------4--3----------5--|--7----------7--5----------5--|--3------5---------------------|
--2----------4--3----------5--|--7----------7--5----------5--|--3------5---------------------|
--2--2-2-2-2-2--1--1-1-1-1-3--|--5--5-5-5-5-5--3--3-3-3-3-3--|--1--1-1-3--3-3----------------|
------------------------------|------------------------------|----------------0--0-3-0-5-0-0-|


  E  S S S S E  E  S S S S E     E  S S S S E  E  S S S S E     E  S S S S S S S S S S S S E   
------------------------------|------------------------------|--------------------------------|
------------------------------|------------------------------|--------------------------------|
--7----------7--5----------5--|--4----------4--3----------5--|--------------------------------|
--7----------7--5----------5--|--2----------4--3----------5--|--------------------------------|
--5--5-5-5-5-5--3--3-3-3-3-3--|--2--2-2-2-2-2--1--1-1-1-1-3--|--5-----------------------------|
------------------------------|------------------------------|--0--0-3-0-5-0-7-0-8-0-7-0-5-3--|


  E  S S S S S S S S S S S S E     E  S S S S S S S S S S S S E     E  S S S S S S S S S S S S E   
--------------------------------|--------------------------------|--------------------------------|
--------------------------------|--------------------------------|--------------------------------|
--------------------------------|--------------------------------|--------------------------------|
--------------------------------|--------------------------------|--------------------------------|
--5-----------------------------|--5-----------------------------|--5-----------------------------|
--0--0-3-0-5-0-7-0-8-0-7-0-5-3--|--0--0-3-0-5-0-7-0-8-0-7-0-5-3--|--0--0-3-0-5-0-7-0-8-0-7-0-5-3--|


  E  S S S S S S S S S S S S E     E  S S S S S S S S S S S S E     E  S S S S S S S S S S S S E   
--------------------------------|--------------------------------|--------------------------------|
--------------------------------|--------------------------------|--------------------------------|
--------------------------------|--------------------------------|--------------------------------|
--------------------------------|--------------------------------|--------------------------------|
--5-----------------------------|--5-----------------------------|--5-----------------------------|
--0--0-3-0-5-0-7-0-8-0-7-0-5-3--|--0--0-3-0-5-0-7-0-8-0-7-0-5-3--|--0--0-3-0-5-0-7-0-8-0-7-0-5-3--|


  E  S S S S S S S S S S Q       E  S S S S E  E  S S S S E     E  S S E  S S E  S S S S S S  
------------------------------|------------------------------|-------------------------------|
------------------------------|------------------------------|-------------------------------|
------------------------------|--7----------7--5----------5--|--3------5---------------------|
------------------------------|--7----------7--5----------5--|--3------5---------------------|
--5---------------------------|--5--5-5-5-5-5--3--3-3-3-3-3--|--1--1-1-3--3-3----------------|
--0--0-3-0-5-0-7-0-8-0-7------|------------------------------|----------------0--0-3-0-5-0-0-|


  E  S S S S E  E  S S S S E     E  S S S S E  E  S S S S E     E  S S S S E  E  S S S S E   
------------------------------|------------------------------|------------------------------|
------------------------------|------------------------------|------------------------------|
--7----------7--5----------5--|--4----------4--3----------5--|--7----------7--5----------5--|
--7----------7--5----------5--|--2----------4--3----------5--|--7----------7--5----------5--|
--5--5-5-5-5-5--3--3-3-3-3-3--|--2--2-2-2-2-2--1--1-1-1-1-3--|--5--5-5-5-5-5--3--3-3-3-3-3--|
------------------------------|------------------------------|------------------------------|


  E  S S E  S S E  S S S S S S    E  S S S S E  E  S S S S E     E  S S S S E  E  S S S S E   
-------------------------------|------------------------------|------------------------------|
-------------------------------|------------------------------|------------------------------|
--3------5---------------------|--7----------7--5----------5--|--4----------4--3-------------|
--3------5---------------------|--7----------7--5----------5--|--2----------4--3-------------|
--1--1-1-3--3-3----------------|--5--5-5-5-5-5--3--3-3-3-3-3--|--2--2-2-2-2-2--1--1-1-1------|
----------------0--0-3-0-5-0-0-|------------------------------|------------------------------|


  E  S S S S E  E  S S S S E     E  S S S S S S S S S S S S S S    E  S S S S E  E  S S S S E   
------------------------------|---------------------------------|------------------------------|
------------------------------|---------------------------------|------------------------------|
------------------------------|---------------------------------|------------------------------|
--1-------------3-------------|--5----------------3-------------|--1-------------3-------------|
--1----------1--3----------3--|--5----5---3---5-------5---3-5---|--1----------1--3----------3--|
--1--1-1-1-1-1--3--3-3-3-3-3--|--5--5---5---5---5---5---5-----5-|--1--1-1-1-1-1--3--3-3-3-3-3--|


  E  S E  S S S E   S S S S S S    E  S S S S E  E  S S S S E     E  S S S S S S S S S S S S S S  
--------------------------------|------------------------------|---------------------------------|
--------------------------------|------------------------------|---------------------------------|
--------------------------------|------------------------------|---------------------------------|
--5-----------3-5~--4-3---------|--1-------------3-------------|--5----------------3-------------|
--5----5--3-5-----------5-4-3-1-|--1----------1--3----------3--|--5----5---3---5-------5---3-5---|
--5--5--------------------------|--1--1-1-1-1-1--3--3-3-3-3-3--|--5--5---5---5---5---5---5-----5-|


  E  S S S S E  E  S S S S E     E  S E  S E  E  E  S S S S    E  S S S S E  E  S S S S E   
------------------------------|-----------------------------|------------------------------|
------------------------------|-----------------------------|------------------------------|
------------------------------|---------------3-------------|------------------------------|
--1-------------3-------------|--5----5--3-5--3--5--3-5-3---|--1-------------3-------------|
--1----------1--3----------3--|--5----5--3-5-----5--3-5-3-5-|--1----------1--3----------3--|
--1--1-1-1-1-1--3--3-3-3-3-3--|--5--5---------------------5-|--1--1-1-1-1-1--3--3-3-3-3-3--|


  E  S S S S S S S S S S S S S S    E  S S S S E  E  S S S S E     E  S E  S S S E   S S S S S S  
---------------------------------|------------------------------|--------------------------------|
---------------------------------|------------------------------|--------------------------------|
---------------------------------|------------------------------|--------------------------------|
--5----------------3-------------|--1-------------3-------------|--5-----------3-5~--4-3---------|
--5----5---3---5-------5---3-5---|--1----------1--3----------3--|--5----5--3-5-----------5-4-3-1-|
--5--5---5---5---5---5---5-----5-|--1--1-1-1-1-1--3--3-3-3-3-3--|--5--5--------------------------|


  E  S S S S E  E  S S S S E     E  S S S S S S S S S S S S S S    E  S S S S E  E  S S S S E   
------------------------------|---------------------------------|------------------------------|
------------------------------|---------------------------------|------------------------------|
------------------------------|---------------------------------|------------------------------|
--1-------------3-------------|--5----------------3-------------|--1-------------3-------------|
--1----------1--3----------3--|--5----5---3---5-------5---3-5---|--1----------1--3----------3--|
--1--1-1-1-1-1--3--3-3-3-3-3--|--5--5---5---5---5---5---5-----5-|--1--1-1-1-1-1--3--3-3-3-3-3--|


  E  S E  S S S E  E  S S S S    E  S S S S S S S S S S S S E     E  S S S S S S S S S S S S E   
------------------------------|--------------------------------|--------------------------------|
----------------6-------------|--------------------------------|--------------------------------|
-------7--5-----3--7----------|--------------------------------|--------------------------------|
--5----5--3-----3--5--3-5-3-3-|--------------------------------|--------------------------------|
--5----5--3-5-5----5--3-5-3-3-|--5-----------------------------|--5-----------------------------|
--5--5------5-5---------------|--0--0-3-0-5-0-7-0-8-0-7-0-5-3--|--0--0-3-0-5-0-7-0-8-0-7-0-5-3--|


  E  S S S S S S S S S S S S E     E  S S S S S S S S S S S S E     E  S S S S S S S S S S S S E   
--------------------------------|--------------------------------|--------------------------------|
--------------------------------|--------------------------------|--------------------------------|
--------------------------------|--------------------------------|--------------------------------|
--------------------------------|--------------------------------|--------------------------------|
--5-----------------------------|--5-----------------------------|--5-----------------------------|
--0--0-3-0-5-0-7-0-8-0-7-0-5-3--|--0--0-3-0-5-0-7-0-8-0-7-0-5-3--|--0--0-3-0-5-0-7-0-8-0-7-0-5-3--|


  E  S S S S S S S S S S S S E     E  S S S S S S S S S S S S E     E  S S S S S S S S S S Q     
--------------------------------|--------------------------------|------------------------------|
--------------------------------|--------------------------------|------------------------------|
--------------------------------|--------------------------------|------------------------------|
--------------------------------|--------------------------------|------------------------------|
--5-----------------------------|--5-----------------------------|--5---------------------------|
--0--0-3-0-5-0-7-0-8-0-7-0-5-3--|--0--0-3-0-5-0-7-0-8-0-7-0-5-3--|--0--0-3-0-5-0-7-0-8-0-7------|


  E  S S S S E  E  S S S S E     E  S S E  S S E  S S S S S S    E  S S S S E  E  S S S S E   
------------------------------|-------------------------------|------------------------------|
------------------------------|-------------------------------|------------------------------|
--7----------7--5----------5--|--3------5---------------------|--7----------7--5----------5--|
--7----------7--5----------5--|--3------5---------------------|--7----------7--5----------5--|
--5--5-5-5-5-5--3--3-3-3-3-3--|--1--1-1-3--3-3----------------|--5--5-5-5-5-5--3--3-3-3-3-3--|
------------------------------|----------------0--0-3-0-5-0-0-|------------------------------|


  E  S S S S E  E  S S S S E     E  S S S S E  E  S S S S E     E  S S E  S S E  S S S S S S  
------------------------------|------------------------------|-------------------------------|
------------------------------|------------------------------|-------------------------------|
--4----------4--3----------5--|--7----------7--5----------5--|--3------5---------------------|
--2----------4--3----------5--|--7----------7--5----------5--|--3------5---------------------|
--2--2-2-2-2-2--1--1-1-1-1-3--|--5--5-5-5-5-5--3--3-3-3-3-3--|--1--1-1-3--3-3----------------|
------------------------------|------------------------------|----------------0--0-3-0-5-0-0-|


  E  S S S S E  E  S S S S E     E  S S S S E  E  S S S S E     E  S S S S E  E  S S S S E   
------------------------------|------------------------------|------------------------------|
------------------------------|------------------------------|------------------------------|
--7----------7--5----------5--|--4----------4--3-------------|------------------------------|
--7----------7--5----------5--|--2----------4--3-------------|--1-------------3-------------|
--5--5-5-5-5-5--3--3-3-3-3-3--|--2--2-2-2-2-2--1--1-1-1------|--1----------1--3----------3--|
------------------------------|------------------------------|--1--1-1-1-1-1--3--3-3-3-3-3--|


  E  S S S S S S S S S S S S S S    E  S S S S E  E  S S S S E     E  S E  S S S E   S S S S S S  
---------------------------------|------------------------------|--------------------------------|
---------------------------------|------------------------------|--------------------------------|
---------------------------------|------------------------------|--------------------------------|
--5----------------3-------------|--1-------------3-------------|--5-----------3-5~--4-3---------|
--5----5---3---5-------5---3-5---|--1----------1--3----------3--|--5----5--3-5-----------5-4-3-1-|
--5--5---5---5---5---5---5-----5-|--1--1-1-1-1-1--3--3-3-3-3-3--|--5--5--------------------------|


  E  S S S S E  E  S S S S E     E  S S S S S S S S S S S S S S    E  S S S S E  E  S S S S E   
------------------------------|---------------------------------|------------------------------|
------------------------------|---------------------------------|------------------------------|
------------------------------|---------------------------------|------------------------------|
--1-------------3-------------|--5----------------3-------------|--1-------------3-------------|
--1----------1--3----------3--|--5----5---3---5-------5---3-5---|--1----------1--3----------3--|
--1--1-1-1-1-1--3--3-3-3-3-3--|--5--5---5---5---5---5---5-----5-|--1--1-1-1-1-1--3--3-3-3-3-3--|


  E  S E  S E  E  E  S S S S    E  S S S S E  E  S S S S E     E  S S S S S S S S S S S S S S  
-----------------------------|------------------------------|---------------------------------|
-----------------------------|------------------------------|---------------------------------|
---------------3-------------|------------------------------|---------------------------------|
--5----5--3-5--3--5--3-5-3---|--1-------------3-------------|--5----------------3-------------|
--5----5--3-5-----5--3-5-3-5-|--1----------1--3----------3--|--5----5---3---5-------5---3-5---|
--5--5---------------------5-|--1--1-1-1-1-1--3--3-3-3-3-3--|--5--5---5---5---5---5---5-----5-|


  E  S S S S E  E  S S S S E     E  S E  S S S E   S S S S S S    E  S S S S E  E  S S S S E   
------------------------------|--------------------------------|------------------------------|
------------------------------|--------------------------------|------------------------------|
------------------------------|--------------------------------|------------------------------|
--1-------------3-------------|--5-----------3-5~--4-3---------|--1-------------3-------------|
--1----------1--3----------3--|--5----5--3-5-----------5-4-3-1-|--1----------1--3----------3--|
--1--1-1-1-1-1--3--3-3-3-3-3--|--5--5--------------------------|--1--1-1-1-1-1--3--3-3-3-3-3--|


  E  S S S S S S S S S S S S S S    E  S S S S E  E  S S S S E     E  S E  S S S E  E  S S S S  
---------------------------------|------------------------------|------------------------------|
---------------------------------|------------------------------|----------------6-------------|
---------------------------------|------------------------------|-------7--5-----3--7----------|
--5----------------3-------------|--1-------------3-------------|--5----5--3-----3--5--3-5-3-3-|
--5----5---3---5-------5---3-5---|--1----------1--3----------3--|--5----5--3-5-5----5--3-5-3-3-|
--5--5---5---5---5---5---5-----5-|--1--1-1-1-1-1--3--3-3-3-3-3--|--5--5------5-5---------------|


  E  S S S S E  E  S S S S E     E  S S S S S S S S S S S S S S    E  S S S S E  E  S S S S E   
------------------------------|---------------------------------|------------------------------|
------------------------------|---------------------------------|------------------------------|
------------------------------|---------------------------------|------------------------------|
--1-------------3-------------|--5----------------3-------------|--1-------------3-------------|
--1----------1--3----------3--|--5----5---3---5-------5---3-5---|--1----------1--3----------3--|
--1--1-1-1-1-1--3--3-3-3-3-3--|--5--5---5---5---5---5---5-----5-|--1--1-1-1-1-1--3--3-3-3-3-3--|


  E  S E  S S S E   S S S S S S    E  S S S S E  E  S S S S E     E  S S S S S S S S S S S S S S  
--------------------------------|------------------------------|---------------------------------|
--------------------------------|------------------------------|---------------------------------|
--------------------------------|------------------------------|---------------------------------|
--5-----------3-5~--4-3---------|--1-------------3-------------|--5----------------3-------------|
--5----5--3-5-----------5-4-3-1-|--1----------1--3----------3--|--5----5---3---5-------5---3-5---|
--5--5--------------------------|--1--1-1-1-1-1--3--3-3-3-3-3--|--5--5---5---5---5---5---5-----5-|


  E  S S S S E  E  S S S S E     E  S E  S E  E  E  S S S S    E  S S S S E  E  S S S S E   
------------------------------|-----------------------------|------------------------------|
------------------------------|-----------------------------|------------------------------|
------------------------------|---------------3-------------|------------------------------|
--1-------------3-------------|--5----5--3-5--3--5--3-5-3---|--1-------------3-------------|
--1----------1--3----------3--|--5----5--3-5-----5--3-5-3-5-|--1----------1--3----------3--|
--1--1-1-1-1-1--3--3-3-3-3-3--|--5--5---------------------5-|--1--1-1-1-1-1--3--3-3-3-3-3--|


  E  S S S S S S S S S S S S S S    E  S S S S E  E  S S S S E     E  S E  S S S E   S S S S S S  
---------------------------------|------------------------------|--------------------------------|
---------------------------------|------------------------------|--------------------------------|
---------------------------------|------------------------------|--------------------------------|
--5----------------3-------------|--1-------------3-------------|--5-----------3-5~--4-3---------|
--5----5---3---5-------5---3-5---|--1----------1--3----------3--|--5----5--3-5-----------5-4-3-1-|
--5--5---5---5---5---5---5-----5-|--1--1-1-1-1-1--3--3-3-3-3-3--|--5--5--------------------------|


  E  S S S S E  E  S S S S E     E  S S S S S S S S S S S S S S    E  S S S S E  E  S S S S E   
------------------------------|---------------------------------|------------------------------|
------------------------------|---------------------------------|------------------------------|
------------------------------|---------------------------------|------------------------------|
--1-------------3-------------|--5----------------3-------------|--1-------------3-------------|
--1----------1--3----------3--|--5----5---3---5-------5---3-5---|--1----------1--3----------3--|
--1--1-1-1-1-1--3--3-3-3-3-3--|--5--5---5---5---5---5---5-----5-|--1--1-1-1-1-1--3--3-3-3-3-3--|


  E  S E  S S S E  E  S S S S    E  S S S S E  E  S S S S E     E  S S S S S S S S S S S S S S  
------------------------------|------------------------------|---------------------------------|
----------------6-------------|------------------------------|---------------------------------|
-------7--5-----3--7----------|------------------------------|---------------------------------|
--5----5--3-----3--5--3-5-3-3-|--1-------------3-------------|--5----------------3-------------|
--5----5--3-5-5----5--3-5-3-3-|--1----------1--3----------3--|--5----5---3---5-------5---3-5---|
--5--5------5-5---------------|--1--1-1-1-1-1--3--3-3-3-3-3--|--5--5---5---5---5---5---5-----5-|


  E  S S S S E  E  S S S S E     E  S E  S S S E   S S S S S S    E  S S S S E  E  S S S S E   
------------------------------|--------------------------------|------------------------------|
------------------------------|--------------------------------|------------------------------|
------------------------------|--------------------------------|------------------------------|
--1-------------3-------------|--5-----------3-5~--4-3---------|--1-------------3-------------|
--1----------1--3----------3--|--5----5--3-5-----------5-4-3-1-|--1----------1--3----------3--|
--1--1-1-1-1-1--3--3-3-3-3-3--|--5--5--------------------------|--1--1-1-1-1-1--3--3-3-3-3-3--|


  E  S S S S S S S S S S S S S S    E  S S S S E  E  S S S S E     E  S E  S E  E  E  S S S S  
---------------------------------|------------------------------|-----------------------------|
---------------------------------|------------------------------|-----------------------------|
---------------------------------|------------------------------|---------------3-------------|
--5----------------3-------------|--1-------------3-------------|--5----5--3-5--3--5--3-5-3---|
--5----5---3---5-------5---3-5---|--1----------1--3----------3--|--5----5--3-5-----5--3-5-3-5-|
--5--5---5---5---5---5---5-----5-|--1--1-1-1-1-1--3--3-3-3-3-3--|--5--5---------------------5-|


  E  S S S S E  E  S S S S E     E  S S S S S S S S S S S S S S    E  S S S S E  E  S S S S E   
------------------------------|---------------------------------|------------------------------|
------------------------------|---------------------------------|------------------------------|
------------------------------|---------------------------------|------------------------------|
--1-------------3-------------|--5----------------3-------------|--1-------------3-------------|
--1----------1--3----------3--|--5----5---3---5-------5---3-5---|--1----------1--3----------3--|
--1--1-1-1-1-1--3--3-3-3-3-3--|--5--5---5---5---5---5---5-----5-|--1--1-1-1-1-1--3--3-3-3-3-3--|


  E  S E  S S S E   S S S S S S    E  S S S S E  E  S S S S E     E  S S S S S S S S S S S S S S  
--------------------------------|------------------------------|---------------------------------|
--------------------------------|------------------------------|---------------------------------|
--------------------------------|------------------------------|---------------------------------|
--5-----------3-5~--4-3---------|--1-------------3-------------|--5----------------3-------------|
--5----5--3-5-----------5-4-3-1-|--1----------1--3----------3--|--5----5---3---5-------5---3-5---|
--5--5--------------------------|--1--1-1-1-1-1--3--3-3-3-3-3--|--5--5---5---5---5---5---5-----5-|


  E  S S S S E  E  S S S S E     E  S E  S S S E  E  S S S S    E  S S S S S S E  S S S S S S  
------------------------------|------------------------------|--------------------------------|
------------------------------|----------------6-------------|--------------------------6-----|
------------------------------|-------7--5-----3--7----------|---------0-3-0----------5---5---|
--1-------------3-------------|--5----5--3-----3--5--3-5-3-3-|-------1--------------3---------|
--1----------1--3----------3--|--5----5--3-5-5----5--3-5-3-3-|-----1--------------3-----------|
--1--1-1-1-1-1--3--3-3-3-3-3--|--5--5------5-5---------------|--1--------------3--------------|


  E  S S S S S S E  S S S S S S    H        H           W                   
---------------3-3--------------|--------------------|--------------------||
-----------3----------3-3-------|--------------------|--------------------||
---------3---3------3-----3-0---|--------------------|-------------------*||
-------5------------------------|--1--------3--------|--5----------------*||
-----5--------------------------|--1--------3--------|--5-----------------||
--5-----------------------------|--1--------3--------|--5-----------------||


bass

              E  S S S S S S S S S S S S E     E  S S S S S S S S S S S S E   
G||-------||---------------------------------|--------------------------------|
D||-------||*--------------------------------|--------------------------------|
A||-------||*--5--5-5-5-5-5-5-5-5-5-5-5-5-3--|--5--5-5-5-5-5-5-5-5-5-5-5-5-3--|
D||-------||---------------------------------|--------------------------------|


  E  S S S S S S S S S S S S E     E  S S S S S S S S S S S S E     E  S S S S S S S S S S S S E   
--------------------------------|--------------------------------|--------------------------------|
--------------------------------|--------------------------------|--------------------------------|
--1--1-1-1-1-1-1-1-1-1-1-1-1-3--|--1--1-1-1-1-1-1-1-1-1-1-1-1-3--|--5--5-5-5-5-5-5-5-5-5-5-5-5-3--|
--------------------------------|--------------------------------|--------------------------------|


  E  S S S S S S S S S S S S E     E  S S S S S S S S S S S S E     E  S S S S S S S S S S Q     
--------------------------------|--------------------------------|------------------------------|
--------------------------------|--------------------------------|------------------------------|
--5--5-5-5-5-5-5-5-5-5-5-5-5-3--|--1--1-1-1-1-1-1-1-1-1-1-1-1-3--|--1--1-1-1-1-1-1-1-1-1-1------|
--------------------------------|--------------------------------|------------------------------|


  E  S S S S E  E  S S S S E     E  S S E  S S E  S S S S S S    E  S S S S E  E  S S S S E   
------------------------------|-------------------------------|------------------------------|
------------------------------|-------------------------------|------------------------------|
--5--5-5-5-5-5--3--3-3-3-3-3--|--1--1-1-3--3-3----------------|--5--5-5-5-5-5--3--3-3-3-3-3--|
------------------------------|----------------0--0-3-0-5-0-0-|------------------------------|


  E  S S S S E  E  S S S S E     E  S S S S E  E  S S S S E     E  S S E  S S E  S S S S S S  
------------------------------|------------------------------|-------------------------------|
------------------------------|------------------------------|-------------------------------|
--2--2-2-2-2-2--1--1-1-1-1-3--|--5--5-5-5-5-5--3--3-3-3-3-3--|--1--1-1-3--3-3----------------|
------------------------------|------------------------------|----------------0--0-3-0-5-0-0-|


  E  S S S S E  E  S S S S E     E  S S S S E  E  S S S S E     E  S S S S S S S S S S S S E   
------------------------------|------------------------------|--------------------------------|
------------------------------|------------------------------|--------------------------------|
--5--5-5-5-5-5--3--3-3-3-3-3--|--2--2-2-2-2-2--1--1-1-1-1-3--|--5--5-5-5-5-5-5-5-5-5-5-5-5-3--|
------------------------------|------------------------------|--------------------------------|


  E  S S S S S S S S S S S S E     E  S S S S S S S S S S S S E     E  S S S S S S S S S S S S E   
--------------------------------|--------------------------------|--------------------------------|
--------------------------------|--------------------------------|--------------------------------|
--5--5-5-5-5-5-5-5-5-5-5-5-5-3--|--1--1-1-1-1-1-1-1-1-1-1-1-1-3--|--1--1-1-1-1-1-1-1-1-1-1-1-1-3--|
--------------------------------|--------------------------------|--------------------------------|


  E  S S S S S S S S S S S S E     E  S S S S S S S S S S S S E     E  S S S S S S S S S S S S E   
--------------------------------|--------------------------------|--------------------------------|
--------------------------------|--------------------------------|--------------------------------|
--5--5-5-5-5-5-5-5-5-5-5-5-5-3--|--5--5-5-5-5-5-5-5-5-5-5-5-5-3--|--1--1-1-1-1-1-1-1-1-1-1-1-1-3--|
--------------------------------|--------------------------------|--------------------------------|


  E  S S S S S S S S S S S S E     E  S S S S E  E  S S S S E     E  S S E  S S E  S S S S S S  
--------------------------------|------------------------------|-------------------------------|
--------------------------------|------------------------------|-------------------------------|
--1--1-1-1-1-1-1-1-1-1-1-1-1----|--5--5-5-5-5-5--3--3-3-3-3-3--|--1--1-1-3--3-3----------------|
--------------------------------|------------------------------|----------------0--0-3-0-5-0-0-|


  E  S S S S E  E  S S S S E     E  S S S S E  E  S S S S E     E  S S S S E  E  S S S S E   
------------------------------|------------------------------|------------------------------|
------------------------------|------------------------------|------------------------------|
--5--5-5-5-5-5--3--3-3-3-3-3--|--2--2-2-2-2-2--1--1-1-1-1-3--|--5--5-5-5-5-5--3--3-3-3-3-3--|
------------------------------|------------------------------|------------------------------|


  E  S S E  S S E  S S S S S S    E  S S S S E  E  S S S S E     E  S S S S E  E  S S S S E   
-------------------------------|------------------------------|------------------------------|
-------------------------------|------------------------------|------------------------------|
--1--1-1-3--3-3----------------|--5--5-5-5-5-5--3--3-3-3-3-3--|--2--2-2-2-2-2--1--1-1-1------|
----------------0--0-3-0-5-0-0-|------------------------------|------------------------------|


  E  S S S S S S E  S S S S S S    E  S S S S S S S S S S S S S S    E  S S S S S S E  S S S S S S  
--------------------------------|---------------------------------|--------------------------------|
--------------------------------|-------------------3-------------|--------------------------------|
--------------------------------|-------5---3---5-------5---3-5---|--------------------------------|
--1--1-1-1-1-1-1-3--3-3-3-3-3-3-|--5--5---5---5---5---5---5-----5-|--1--1-1-1-1-1-1-3--3-3-3-3-3-3-|


  E  S E  S S S E   S S S S S S    E  S S S S S S E  S S S S S S    E  S S S S S S S S S S S S S S  
--------------------------------|--------------------------------|---------------------------------|
----------------5~--4-3---------|--------------------------------|-------------------3-------------|
-------5--3-5-----------5-4-3---|--------------------------------|-------5---3---5-------5---3-5---|
--5--5--------------------------|--1--1-1-1-1-1-1-3--3-3-3-3-3-3-|--5--5---5---5---5---5---5-----5-|


  E  S S S S S S E  S S S S S S    E  S E  S E  S S. S. S. S.  S    E  S S S S S S E  S S S S S S  
--------------------------------|--------------------------------|--------------------------------|
--------------------------------|--------------------------------|--------------------------------|
--------------------------------|--------------------------------|--------------------------------|
--1--1-1-1-1-1-1-3--3-3-3-3-3-3-|--5--5-5--3-5--5-5--6--7--8--10-|--1--1-1-1-1-1-1-3--3-3-3-3-3-3-|


  E  S S S S S S S S S S S S S S    E  S S S S S S E  S S S S S S    E  S E  S S S E   S S S S S S  
---------------------------------|--------------------------------|--------------------------------|
-------------------3-------------|--------------------------------|----------------5~--4-3---------|
-------5---3---5-------5---3-5---|--------------------------------|-------5--3-5-----------5-4-3---|
--5--5---5---5---5---5---5-----5-|--1--1-1-1-1-1-1-3--3-3-3-3-3-3-|--5--5--------------------------|


  E  S S S S S S E  S S S S S S    E  S S S S S S S S S S S S S S    E  S S S S S S E  S S S S S S  
--------------------------------|---------------------------------|--------------------------------|
--------------------------------|-------------------3-------------|--------------------------------|
--------------------------------|-------5---3---5-------5---3-5---|--------------------------------|
--1--1-1-1-1-1-1-3--3-3-3-3-3-3-|--5--5---5---5---5---5---5-----5-|--1--1-1-1-1-1-1-3--3-3-3-3-3-3-|


  E  S E  S E  E  E  S S S S    E  S S S S S S S S S S S S E     E  S S S S S S S S S S S S E   
-----------------------------|--------------------------------|--------------------------------|
-----------------------------|--------------------------------|--------------------------------|
---------------1-------------|--5--5-5-5-5-5-5-5-5-5-5-5-5-3--|--5--5-5-5-5-5-5-5-5-5-5-5-5-3--|
--5--5-5--3-5-----5--3-5-----|--------------------------------|--------------------------------|


  E  S S S S S S S S S S S S E     E  S S S S S S S S S S S S E     E  S S S S S S S S S S S S E   
--------------------------------|--------------------------------|--------------------------------|
--------------------------------|--------------------------------|--------------------------------|
--1--1-1-1-1-1-1-1-1-1-1-1-1-3--|--1--1-1-1-1-1-1-1-1-1-1-1-1-3--|--5--5-5-5-5-5-5-5-5-5-5-5-5-3--|
--------------------------------|--------------------------------|--------------------------------|


  E  S S S S S S S S S S S S E     E  S S S S S S S S S S S S E     E  S S S S S S S S S S S S E   
--------------------------------|--------------------------------|--------------------------------|
--------------------------------|--------------------------------|--------------------------------|
--5--5-5-5-5-5-5-5-5-5-5-5-5-3--|--1--1-1-1-1-1-1-1-1-1-1-1-1-3--|--1--1-1-1-1-1-1-1-1-1-1-1-1----|
--------------------------------|--------------------------------|--------------------------------|


  E  S S S S E  E  S S S S E     E  S S E  S S E  S S S S S S    E  S S S S E  E  S S S S E   
------------------------------|-------------------------------|------------------------------|
------------------------------|-------------------------------|------------------------------|
--5--5-5-5-5-5--3--3-3-3-3-3--|--1--1-1-3--3-3----------------|--5--5-5-5-5-5--3--3-3-3-3-3--|
------------------------------|----------------0--0-3-0-5-0-0-|------------------------------|


  E  S S S S E  E  S S S S E     E  S S S S E  E  S S S S E     E  S S E  S S E  S S S S S S  
------------------------------|------------------------------|-------------------------------|
------------------------------|------------------------------|-------------------------------|
--2--2-2-2-2-2--1--1-1-1-1-3--|--5--5-5-5-5-5--3--3-3-3-3-3--|--1--1-1-3--3-3----------------|
------------------------------|------------------------------|----------------0--0-3-0-5-0-0-|


  E  S S S S E  E  S S S S E     E  S S S S E  E  S S S S E     E  S S S S S S E  S S S S S S  
------------------------------|------------------------------|--------------------------------|
------------------------------|------------------------------|--------------------------------|
--5--5-5-5-5-5--3--3-3-3-3-3--|--2--2-2-2-2-2--1--1-1-1------|--------------------------------|
------------------------------|------------------------------|--1--1-1-1-1-1-1-3--3-3-3-3-3-3-|


  E  S S S S S S S S S S S S S S    E  S S S S S S E  S S S S S S    E  S E  S S S E   S S S S S S  
---------------------------------|--------------------------------|--------------------------------|
-------------------3-------------|--------------------------------|----------------5~--4-3---------|
-------5---3---5-------5---3-5---|--------------------------------|-------5--3-5-----------5-4-3---|
--5--5---5---5---5---5---5-----5-|--1--1-1-1-1-1-1-3--3-3-3-3-3-3-|--5--5--------------------------|


  E  S S S S S S E  S S S S S S    E  S S S S S S S S S S S S S S    E  S S S S S S E  S S S S S S  
--------------------------------|---------------------------------|--------------------------------|
--------------------------------|-------------------3-------------|--------------------------------|
--------------------------------|-------5---3---5-------5---3-5---|--------------------------------|
--1--1-1-1-1-1-1-3--3-3-3-3-3-3-|--5--5---5---5---5---5---5-----5-|--1--1-1-1-1-1-1-3--3-3-3-3-3-3-|


  E  S E  S E  S S. S. S. S.  S    E  S S S S S S E  S S S S S S    E  S S S S S S S S S S S S S S  
--------------------------------|--------------------------------|---------------------------------|
--------------------------------|--------------------------------|-------------------3-------------|
--------------------------------|--------------------------------|-------5---3---5-------5---3-5---|
--5--5-5--3-5--5-5--6--7--8--10-|--1--1-1-1-1-1-1-3--3-3-3-3-3-3-|--5--5---5---5---5---5---5-----5-|


  E  S S S S S S E  S S S S S S    E  S E  S S S E   S S S S S S    E  S S S S S S E  S S S S S S  
--------------------------------|--------------------------------|--------------------------------|
--------------------------------|----------------5~--4-3---------|--------------------------------|
--------------------------------|-------5--3-5-----------5-4-3---|--------------------------------|
--1--1-1-1-1-1-1-3--3-3-3-3-3-3-|--5--5--------------------------|--1--1-1-1-1-1-1-3--3-3-3-3-3-3-|


  E  S S S S S S S S S S S S S S    E  S S S S S S E  S S S S S S    E  S E  S E  E  E  S S S S  
---------------------------------|--------------------------------|-----------------------------|
-------------------3-------------|--------------------------------|-----------------------------|
-------5---3---5-------5---3-5---|--------------------------------|---------------1-------------|
--5--5---5---5---5---5---5-----5-|--1--1-1-1-1-1-1-3--3-3-3-3-3-3-|--5--5-5--3-5-----5--3-5-----|


  E  S S S S S S E  S S S S S S    E  S S S S S S S S S S S S S S    E  S S S S S S E  S S S S S S  
--------------------------------|---------------------------------|--------------------------------|
--------------------------------|-------------------3-------------|--------------------------------|
--------------------------------|-------5---3---5-------5---3-5---|--------------------------------|
--1--1-1-1-1-1-1-3--3-3-3-3-3-3-|--5--5---5---5---5---5---5-----5-|--1--1-1-1-1-1-1-3--3-3-3-3-3-3-|


  E  S E  S S S E   S S S S S S    E  S S S S S S E  S S S S S S    E  S S S S S S S S S S S S S S  
--------------------------------|--------------------------------|---------------------------------|
----------------5~--4-3---------|--------------------------------|-------------------3-------------|
-------5--3-5-----------5-4-3---|--------------------------------|-------5---3---5-------5---3-5---|
--5--5--------------------------|--1--1-1-1-1-1-1-3--3-3-3-3-3-3-|--5--5---5---5---5---5---5-----5-|


  E  S S S S S S E  S S S S S S    E  S E  S E  S S. S. S. S.  S    E  S S S S S S E  S S S S S S  
--------------------------------|--------------------------------|--------------------------------|
--------------------------------|--------------------------------|--------------------------------|
--------------------------------|--------------------------------|--------------------------------|
--1--1-1-1-1-1-1-3--3-3-3-3-3-3-|--5--5-5--3-5--5-5--6--7--8--10-|--1--1-1-1-1-1-1-3--3-3-3-3-3-3-|


  E  S S S S S S S S S S S S S S    E  S S S S S S E  S S S S S S    E  S E  S S S E   S S S S S S  
---------------------------------|--------------------------------|--------------------------------|
-------------------3-------------|--------------------------------|----------------5~--4-3---------|
-------5---3---5-------5---3-5---|--------------------------------|-------5--3-5-----------5-4-3---|
--5--5---5---5---5---5---5-----5-|--1--1-1-1-1-1-1-3--3-3-3-3-3-3-|--5--5--------------------------|


  E  S S S S S S E  S S S S S S    E  S S S S S S S S S S S S S S    E  S S S S S S E  S S S S S S  
--------------------------------|---------------------------------|--------------------------------|
--------------------------------|-------------------3-------------|--------------------------------|
--------------------------------|-------5---3---5-------5---3-5---|--------------------------------|
--1--1-1-1-1-1-1-3--3-3-3-3-3-3-|--5--5---5---5---5---5---5-----5-|--1--1-1-1-1-1-1-3--3-3-3-3-3-3-|


  E  S E  S E  E  E  S S S S    E  S S S S S S E  S S S S S S    E  S S S S S S S S S S S S S S  
-----------------------------|--------------------------------|---------------------------------|
-----------------------------|--------------------------------|-------------------3-------------|
---------------1-------------|--------------------------------|-------5---3---5-------5---3-5---|
--5--5-5--3-5-----5--3-5-----|--1--1-1-1-1-1-1-3--3-3-3-3-3-3-|--5--5---5---5---5---5---5-----5-|


  E  S S S S S S E  S S S S S S    E  S E  S S S E   S S S S S S    E  S S S S S S E  S S S S S S  
--------------------------------|--------------------------------|--------------------------------|
--------------------------------|----------------5~--4-3---------|--------------------------------|
--------------------------------|-------5--3-5-----------5-4-3---|--------------------------------|
--1--1-1-1-1-1-1-3--3-3-3-3-3-3-|--5--5--------------------------|--1--1-1-1-1-1-1-3--3-3-3-3-3-3-|


  E  S S S S S S S S S S S S S S    E  S S S S S S E  S S S S S S    E  S E  S E  S S. S. S. S.  S  
---------------------------------|--------------------------------|--------------------------------|
-------------------3-------------|--------------------------------|--------------------------------|
-------5---3---5-------5---3-5---|--------------------------------|--------------------------------|
--5--5---5---5---5---5---5-----5-|--1--1-1-1-1-1-1-3--3-3-3-3-3-3-|--5--5-5--3-5--5-5--6--7--8--10-|


  E  S S S S S S E  S S S S S S    E  S S S S S S S S S S S S S S    E  S S S S S S E  S S S S S S  
--------------------------------|---------------------------------|--------------------------------|
--------------------------------|-------------------3-------------|--------------------------------|
--------------------------------|-------5---3---5-------5---3-5---|--------------------------------|
--1--1-1-1-1-1-1-3--3-3-3-3-3-3-|--5--5---5---5---5---5---5-----5-|--1--1-1-1-1-1-1-3--3-3-3-3-3-3-|


  E  S E  S S S E   S S S S S S    E  S S S S S S E  S S S S S S    E  S S S S S S S S S S S S S S  
--------------------------------|--------------------------------|---------------------------------|
----------------5~--4-3---------|--------------------------------|-------------------3-------------|
-------5--3-5-----------5-4-3---|--------------------------------|-------5---3---5-------5---3-5---|
--5--5--------------------------|--1--1-1-1-1-1-1-3--3-3-3-3-3-3-|--5--5---5---5---5---5---5-----5-|


  E  S S S S S S E  S S S S S S    E  S E  S E  E  E  S S S S    E  S S S S E  E  S S S S S S  
--------------------------------|-----------------------------|-------------------------------|
--------------------------------|-----------------------------|-------------------------------|
--------------------------------|---------------1-------------|-------------------------------|
--1--1-1-1-1-1-1-3--3-3-3-3-3-3-|--5--5-5--3-5-----5--3-5-----|--1--1-1-1-1-1--3--3-3-3-3-1---|


  E  S E  S E  E  E  S S E     H        H           H        H           
----------------------------|--------------------|---------------------||
----------------------------|--------------------|--------------------*||
---------------1------------|--------------------|--------------------*||
--5--5-5--3-5-----5--3-5-3--|--1--------3--------|--5--------5---------||




Duration Legend
---------------
W - whole
H - half
Q - quarter
E - 8th
S - 16th
T - 32nd
. - note dotted
|-n-|  - n-tuplets


Tablature Legend
----------------
L - tied note
x - dead note
g - grace note
(n) - ghost note
> - accentuded note
NH - natural harmonic
AH - artificial harmonic
TH - tapped harmonic
SH - semi harmonic
PH - pitch harmonic
h - hammer on
\n/ - tremolo bar dip
\n - tremolo bar dive
-/n - tremolo bar Release up
/n\ - tremolo bar inverted dip
/n - tremolo bar return
-\n - tremolo bar Release down
S - shift slide
s - legato slide
/ -  slide into from below or out of upwards
\ -  slide into from above or out of downwards
~ - vibrato
Login or Register to remove this ad.

1 comment on Suwa Foughten Field ~ Venerable Ancient Battlefield (UI-70 ver)

EPIC

5

This is as epic as the battle with Kanako ! hope to see your cover soon