Login or Register to remove this ad.

IOSYS - Judgement Star (Touhou 10: Mountain of Faith) Guitar Tab

Submitted: Feb 26, 2016 by Bloodypizza (Last updated: Feb 26, 2016)

0
Download | Listen
Game: Touhou 10: Mountain of Faith
Composer(s): ZUN
Style: Alternate picking, Arrangement, Pinch harmonics
Series: Touhou

This song is also called Faith is for the Transient People

AutoScroll: Slow | Medium | Fast
IOSYS - Judgement Star
Touhou 10: Faith is for the Transient People Arrangement
Tabber: Bloodypizza
Tuning: E-Stardart

Symbols:
/// = Slide
PM = Palm Mute
PH = Pinch Harmonic
~~ = Vibrato
b = Bend
h = Hammer on
p = Pull off

Intro:
                                                                                                                       PM [--]  [--]  [--]
E|-----------------------------------------------------------------------------------------------------------------------------------------------|
B|-----------------------------------------------------------------------------------------------------------------------------------------------|
G|--------8----------8----------8-------9--------------------------------------8----------8----------8-------9-----------------------------------|
D|-----6----------4----------6------------------6----6--4--6--4--6----------6----------4----------6------------------6---7-----6-----7-----6-----|
A|--4----------6----------7-----////9-----------6----6--4--6--4--6-------4----------6----------7-----////9-----------6---6-----6-----6-----6-----|
E|----------------------------------------------4----4--2--4--2--4---------------------------------------------------4---4-4-4-4-4-4-4-4-4-4-----|

                             PM [--]  [--]  [--]     PM [--]  [--]  [--]   PM [--]  [--]  [--]  PM [--]  [--]  [--]
E|--------------------------------------------------------------------------------------------------------------------|
B|--------------------------------------------------------------------------------------------------------------------|
G|--------------------9-10----------------------11----------------------11-------------------9-------------------9----|
D|-----------10-11//13--------11----13----14----------11----13----14-----------9---11---13-------9---11---13----------|
A|--11--9-10---------------------11----11----11----------11----11----11----------9----9----9---------9----9----9------|
E|--------------------------------------------------------------------------------------------------------------------|
  PM [-] [-]  [-]  PM  [-]  [-]  [-]   PM [--]  [--]  [--]  [--]  [--]  [--]  [--]
E|-------------------------------------------------------------------------------------------------------------|
B|-------------------------------------------------------------------------------------------------------------|
G|--------------------------------------------------------11---------------------------------------------------|
D|--7---9---11---7----9---11---13---9---10----11----13----------14----13----11----10---------------------------|
A|----7---7----7--------9----9----9--------10----10----10----10----10----10----10------------------------------|
E|-------------------------------------------------------------------------------------------------------------|

E|-------------------------------------------------------------------------------------------------------------|
B|-------------------------------------------------------------------------------------------------------------|
G|--------------------11--13------------------------------------------------------------------------9-11--8~~~-|
D|--11--11-13-14---14---------13--13-14-13-----------------------11----11--11-13-14----10--10-11-13------------|
A|-----------------------------------------14-11----11-12--12-14-----------------------------------------------|
E|-------------------------------------------------------------------------------------------------------------|

E|-------------------------------------------------------------------------------------------------------------|
B|--------------------------------------------------------------------------------------------------------9~~~-|
G|--------------------11--13------------------------------------------------------------------------9-11-------|
D|--11--11-13-14---14---------13--13-14-13-----------------------11----11--11-13-14----10--10-11-13------------|
A|-----------------------------------------14-11----11-12--12-14-----------------------------------------------|
E|-------------------------------------------------------------------------------------------------------------|

E|-----------------------------------------------------------------------------------------------------14-16--|
B|--10--10-12-14----------------------------------------12-10-9-10--10-12-14--14-14-16-17--17-16-14-17--------|
G|---------------13--13-14-13---------11--11-13-14--9-9-------------------------------------------------------|
D|----------------------------14-11---------------------------------------------------------------------------|
A|------------------------------------------------------------------------------------------------------------|
E|------------------------------------------------------------------------------------------------------------|

E|---------------------------------------------------------19----------------19--------------|
B|-------//17-16--------------//19-17-16---------21--19-21----16---17-19--21-----19-17-16----|
G|--//13---------16-11---//13------------18---18---------------------------------------------|
D|-------------------------------------------------------------------------------------------|
A|-------------------------------------------------------------------------------------------|
E|-------------------------------------------------------------------------------------------|

E|------------------------------------------------------------------------19----------------19--20-23--|
B|-------//17-16-14h16p15--------------//19-17h19p17-16---------21--19-21----16---17-19--21------------|
G|--//13------------------16-11---//13------------------18---18----------------------------------------|
D|-----------------------------------------------------------------------------------------------------|
A|-----------------------------------------------------------------------------------------------------|
E|-----------------------------------------------------------------------------------------------------|

     PM [--]  [--]  [--]     PM [--]  [--]  [--]   PM [--]  [--]  [--]  PM [--] [--] [--]
E|--------------------------------------------------------------------------------------------|
B|--------------------------------------------------------------------------------------------|
G|----------------------11----------------------11-------------------9-------------------9----|
D|----11----13----14----------11----13----14-----------9---11---13---------9---11---13--------|
A|-------11----11----11----------11----11----11----------9----9----9---------9----9----9------|
E|--------------------------------------------------------------------------------------------|

  PM [-] [-]  [-]  PM  [-]  [-]  [-]   PM [--]  [--]  [--]  [--]  [--]  [--]  [--]
E|-------------------------------------------------------------------------------------------------------------|
B|-------------------------------------------------------------------------------------------------------------|
G|--------------------------------------------------------11---------------------------------------------------|
D|--7---9---11---7----9---11---13---9---10----11----13----------14----13----11----10---------------------------|
A|----7---7----7--------9----9----9--------10----10----10----10----10----10----10------------------------------|
E|-------------------------------------------------------------------------------------------------------------|

     PM [--]  [--]  [--]     PM [--]  [--]  [--]   PM [--]  [--]  [--]  PM [--] [--] [--]
E|--------------------------------------------------------------------------------------------|
B|--------------------------------------------------------------------------------------------|
G|----------------------11----------------------11-------------------9-------------------9----|
D|----11----13----14----------11----13----14-----------9---11---13---------9---11---13--------|
A|-------11----11----11----------11----11----11----------9----9----9---------9----9----9------|
E|--------------------------------------------------------------------------------------------|

  PM [-] [-]  [-]  PM  [-]  [-]  [-]   PM [--]  [--]  [--]  [--]  [--]  [--]  [--]
E|-------------------------------------------------------------------------------------------------------------|
B|-------------------------------------------------------------------------------------------------------------|
G|--------------------------------------------------------11---------------------------------------------------|
D|--7---9---11---7----9---11---13---9---10----11----13----------14----13----11----10---------------------------|
A|----7---7----7--------9----9----9--------10----10----10----10----10----10----10------------------------------|
E|-------------------------------------------------------------------------------------------------------------|


E|---------------------------------------------------------------------------------------------------------------------------|
B|---------------------------------------------------------------------------------------------------------------------------|
G|------9---8---9---8---9//11//9--------9---8---9---8-------------------9---8---9---8---9//11//9--------9---8---9---8h9------|
D|------9---9---9---9---9//11//9--------9---9---9---9---9//11//9--------9---9---9---9---9//11//9--------9---9---9---9-9--9-9-|
A|------------------------------------------------------9//11//9---------------------------------------------------------9-9-|
E|--9-9-9-9-9-9-9-9-9-9-------------9-9-9-9-9-9-9-9-9-9-------------9-9-9-9-9-9-9-9-9-9-------------9-9-9-9-9-9-9------------|

E|---------------------------------------------------------------------------------------------------------------------------|
B|---------------------------------------------------------------------------------------------------------------------------|
G|------9---8---9---8---9//11//9--------9---8---9---8-------------------9---8---9---8---9//11//9--11-11--13-13--14-14--16~---|
D|------9---9---9---9---9//11//9--------9---9---9---9---9//11//9--------9---9---9---9---9//11//9--11-11--13-13--14-14--16~---| 
A|------------------------------------------------------9//11//9-------------------------------------------------------------|
E|--9-9-9-9-9-9-9-9-9-9-------------9-9-9-9-9-9-9-9-9-9-------------9-9-9-9-9-9-9-9-9-9--------------------------------------|

Solo:

       PH PH                                PH PH  PM [---------------]
E|------------------------------------------------------------------------------------7--9--10--12-12b14--12-10-9------------------|
B|----------------------------------------------------------------------------7-9-10------------------------------10---------------|
G|-//9~~9~~9~~-11-11-11-11-11h12p11p9-11--9~~9~~9~~------------------6--6-7-9----------------------------------------9-7--6-6------|
D|-------------------------------------------------------------6-7-9----------------------------------------------------------7----|
A|----------------------------------------------------//7--7-9---------------------------------------------------------------------|
E|---------------------------------------------------------------------------------------------------------------------------------|


E|-12--12-14--14b15--14p12--14-12-------12-----12--------------------------------------------------------------|
B|-15b------------------------------15b----15b-----15-14-12-14b15-14p12-14-12----12----------------------------|
G|----------------------------------------------------------------------------14----14-------------------------|
D|-------------------------------------------------------------------------------------14----------------------|
A|-------------------------------------------------------------------------------------------------------------|
E|-------------------------------------------------------------------------------------------------------------|


E|-------------------------------------------12----------------------------------------7-9-10-9~~--------------|
B|--10b12-10b12-10b12-10b12-10b13p9-10--9-10-----10-9----10-10-9h10p9-10--------7-9-10-------------------------|
G|----------------------------------------------------11------------------6-7-9--------------------------------|
D|-------------------------------------------------------------------------------------------------------------|
A|-------------------------------------------------------------------------------------------------------------|
E|-------------------------------------------------------------------------------------------------------------|

       PM [-]       PH
E|----------------------------------------------------------------------12----------------------------------------------------------------------------|
B|-------------------------------------------------------------9-10//12----12--------------9h10---------16--17-16-------------------------------------|
G|-------9----8-9---11b-9-11-9--8-9-8-----------9----8-9---11b------------------//9---11----------14h16-----------16-----16----18----16h18--17-18-20--|
D|--//11---11-------------------------9----//11---11--------------------------------9----9----------------------------------16----16------------------|
A|----------------------------------------------------------------------------------------------------------------------------------------------------|
E|----------------------------------------------------------------------------------------------------------------------------------------------------|

   PM [-]   [-]
E|--19-------19-------19--19b-19-------19-------19--19b-19//17-17//16-16//14-14//16-16//14-14//12-12//14-14//--//14-14-14-14--//16-16-16-16--|
B|-----16-17----16-17------------16-17----16-17----------------------------------------------------------------//14-14-14-14--//16-16-16-16--|
G|-------------------------------------------------------------------------------------------------------------------------------------------|
D|-------------------------------------------------------------------------------------------------------------------------------------------|
A|-------------------------------------------------------------------------------------------------------------------------------------------|
E|-------------------------------------------------------------------------------------------------------------------------------------------|

E|-------------------------------------------------------------------------------------------------------------|
B|-------------------------------------------------------------------------------------------------------------|
G|--------------------11--13------------------------------------------------------------------------9-11--8~~~-|
D|--11--11-13-14---14---------13--13-14-13-----------------------11----11--11-13-14----10--10-11-13------------|
A|-----------------------------------------14-11----11-12--12-14-----------------------------------------------|
E|-------------------------------------------------------------------------------------------------------------|

E|-------------------------------------------------------------------------------------------------------------|
B|--------------------------------------------------------------------------------------------------------9~~~-|
G|--------------------11--13------------------------------------------------------------------------9-11-------|
D|--11--11-13-14---14---------13--13-14-13-----------------------11----11--11-13-14----10--10-11-13------------|
A|-----------------------------------------14-11----11-12--12-14-----------------------------------------------|
E|-------------------------------------------------------------------------------------------------------------|

E|-----------------------------------------------------------------------------------------------------14-16--|
B|--10--10-12-14----------------------------------------12-10-9-10--10-12-14--14-14-16-17--17-16-14-17--------|
G|---------------13--13-14-13---------11--11-13-14--9-9-------------------------------------------------------|
D|----------------------------14-11---------------------------------------------------------------------------|
A|------------------------------------------------------------------------------------------------------------|
E|------------------------------------------------------------------------------------------------------------|

E|---------------------------------------------------------19----------------19--------------|
B|-------//17-16--------------//19-17-16---------21--19-21----16---17-19--21-----19-17-16----|
G|--//13---------16-11---//13------------18---18---------------------------------------------|
D|-------------------------------------------------------------------------------------------|
A|-------------------------------------------------------------------------------------------|
E|-------------------------------------------------------------------------------------------|

E|------------------------------------------------------------------------19----------------19--20-23--|
B|-------//17-16-14h16p15--------------//19-17h19p17-16---------21--19-21----16---17-19--21------------|
G|--//13------------------16-11---//13------------------18---18----------------------------------------|
D|-----------------------------------------------------------------------------------------------------|
A|-----------------------------------------------------------------------------------------------------|
E|-----------------------------------------------------------------------------------------------------|

     PM [--]  [--]  [--]     PM [--]  [--]  [--]   PM [--]  [--]  [--]  PM [--] [--] [--]
E|--------------------------------------------------------------------------------------------|
B|--------------------------------------------------------------------------------------------|
G|----------------------11----------------------11-------------------9-------------------9----|
D|----11----13----14----------11----13----14-----------9---11---13---------9---11---13--------|
A|-------11----11----11----------11----11----11----------9----9----9---------9----9----9------|
E|--------------------------------------------------------------------------------------------|

  PM [-] [-]  [-]  PM  [-]  [-]  [-]   PM [--]  [--]  [--]  [--]  [--]  [--]  [--]
E|-------------------------------------------------------------------------------------------------------------|
B|-------------------------------------------------------------------------------------------------------------|
G|--------------------------------------------------------11---------------------------------------------------|
D|--7---9---11---7----9---11---13---9---10----11----13----------14----13----11----10---------------------------|
A|----7---7----7--------9----9----9--------10----10----10----10----10----10----10------------------------------|
E|-------------------------------------------------------------------------------------------------------------|

     PM [--]  [--]  [--]     PM [--]  [--]  [--]   PM [--]  [--]  [--]  PM [--] [--] [--]
E|--------------------------------------------------------------------------------------------|
B|--------------------------------------------------------------------------------------------|
G|----------------------11----------------------11-------------------9-------------------9----|
D|----11----13----14----------11----13----14-----------9---11---13---------9---11---13--------|
A|-------11----11----11----------11----11----11----------9----9----9---------9----9----9------|
E|--------------------------------------------------------------------------------------------|

  PM [-] [-]  [-]  PM  [-]  [-]  [-]   PM [--]  [--]  [--]  [--]  [--]  [--]  [--]
E|-------------------------------------------------------------------------------------------------------------|
B|-------------------------------------------------------------------------------------------------------------|
G|--------------------------------------------------------11---------------------------------------------------|
D|--7---9---11---7----9---11---13---9---10----11----13----------14----13----11----10--11~~~~-------------------|
A|----7---7----7--------9----9----9--------10----10----10----10----10----10----10------------------------------|
E|-------------------------------------------------------------------------------------------------------------|


Login or Register to remove this ad.