Because Princess Inada is Scolding Me (Touhou 10: Mountain of Faith) Guitar Tab

Submitted: Feb 12, 2014 by Bessem

0
Download | Listen
Game: Touhou 10: Mountain of Faith
Composer(s): ZUN
Style: 2 or more instruments, Transcription
Series: Touhou

This song is also called Minoriko Aki's Theme

AutoScroll: Slow | Medium | Fast
Piste 1
     H           E  S S E  E     E  S S E  E     E  E  E  E     E  S S E  E   
E||-----------|---------------|---------------|-----------1--|---------------|
B||-----------|--4----4----4--|--4----4----4--|-----2--------|--4----4----4--|
G||-----------|--3----3----3--|--4----4----4--|--------1-----|--3----3----3--|
D||-----------|--4--4-4-4--4--|--4--4-4-4--4--|--3-----3-----|--4--4-4-4--4--|
A||-----------|---------------|--6--6-6-6--6--|--------------|---------------|
E||-----------|---------------|---------------|--------------|---------------|


  E  S S E  E     E  S S E  E     E  E  E  E     E  S S E  E     E  S S E  E   
---------------|---------------|-----------1--|--2----2----2--|--2----2----2--|
--4----4----4--|--4----4----4--|-----2--------|--4----4----4--|--2----2----2--|
--3----3----3--|--4----4----4--|--------1-----|--3--3-3-3--3--|--2--2-2-2--2--|
--4--4-4-4--4--|--4--4-4-4--4--|--3-----3-----|---------------|--4--4-4-4--4--|
---------------|--6--6-6-6--6--|--------------|---------------|--4--4-4-4--4--|
---------------|---------------|--------------|---------------|---------------|


  E  S S E  E     E  E  E  E     E  S S E  E     E  S S E  E     E  S S E  E   
--2----2----2--|-----0-----4--|---------------|--2----2----2--|--2----2----2--|
--3----3----3--|--------0-----|--6----6----6--|--2----2----2--|--3----3----3--|
--2--2-2-2--2--|--1-----1-----|--6----6----6--|--2--2-2-2--2--|--2--2-2-2--2--|
---------------|--2-----2-----|--6--6-6-6--6--|--4--4-4-4--4--|---------------|
---------------|--2-----2-----|---------------|--4--4-4-4--4--|---------------|
---------------|--------------|---------------|---------------|---------------|


  E  E  E  E     E  E  E  E     Q.     E     E  E  E  E     E  E  Q     
-----0-----4--|--------------|------------|--------------|-------------|
--------0-----|--------------|---------5--|-----5--8--5--|-----5-------|
--1-----1-----|-----------5--|--7---------|--7-----------|--7----------|
--2-----2-----|-----5--7-----|------------|--------------|--------7----|
--2-----2-----|--------------|------------|--------------|-------------|
--------------|--------------|------------|--------------|-------------|


  E  E  E  E     E  E  E  E     E  E  E  E      E  E  E  E     E  E   E   E   
--------------|--------------|--------------|---------------|----------------|
--------------|--------------|--8--------5--|--10-----------|--------10--12--|
-----------5--|--7--------9--|-----9--7-----|---------------|-----9----------|
-----5--7-----|--------7-----|--------------|---------------|----------------|
--------------|--------------|--------------|---------------|--9-------------|
--------------|--------------|--------------|---------------|----------------|


   E  E   E   E     E  E  E  E     E  E  Q       E  E  E  E      E  E  E  E   
-------------10--|--7--8--7-----|-------------|--------------|---------------|
--13-----10------|-----------8--|-------------|--------------|---------------|
-----------------|--------------|--7--9-------|--------------|------------9--|
-----------------|--------------|--------7----|--------7--9--|--10-----7-----|
-----------------|--------------|-------------|-----7--------|---------------|
-----------------|--------------|-------------|--------------|---------------|


  E  E  Q       H           E  E  E  E     E  E  E  E     E  E  E  E   
-------------|-----------|--------------|--------------|--------------|
-------------|-----------|--------------|-----------5--|-----5--8--5--|
--7--5--4----|-----------|-----------5--|--7-----------|--7-----------|
-------------|--7--------|-----5--7-----|--------7-----|--------------|
-------------|-----------|--------------|--------------|--------------|
-------------|-----------|--------------|--------------|--------------|


  E  E  Q       E  E  E  E     E  E  E  E     E  E  E  E      H          
-------------|--------------|--------------|--------------|-------------|
-------------|--------------|--------------|--8-----------|--10s--------|
--7--9-------|-----------5--|--7--------9--|-----9--7--9--|-------------|
--------7----|-----5--7-----|--------7-----|--------------|-------------|
-------------|--------------|--------------|--------------|-------------|
-------------|--------------|--------------|--------------|-------------|


  E  E   E   E      E  E   E   E     E  E  E  E     E  E  Q       E  E  E  E   
----------------|-------------10--|--7--8--7-----|-------------|--------------|
--------10--12--|--13-----10------|-----------8--|-------------|--------------|
-----9----------|-----------------|--------------|--7--9-------|--------------|
----------------|-----------------|--------------|--------7----|--------7--9--|
--9-------------|-----------------|--------------|-------------|-----7--------|
----------------|-----------------|--------------|-------------|--------------|


   E  E  E  E     E  E  Q       H           Q.     E     E  E  E  E   
---------------|-------------|-----------|------------|--------------|
---------------|-------------|-----------|---------5--|-----5--8--5--|
------------9--|--7--5--4----|-----------|--7---------|--7-----------|
--10-----7-----|-------------|--7--------|------------|--------------|
---------------|-------------|-----------|------------|--------------|
---------------|-------------|-----------|------------|--------------|


  E  E  Q       E  E  E  E     E  E  E  E     E  E  E  E      E  E  E  E   
-------------|--------------|--------------|--------------|---------------|
-----5-------|--------------|--------------|--8--------5--|--10-----------|
--7----------|-----------5--|--7--------9--|-----9--7-----|---------------|
--------7----|-----5--7-----|--------7-----|--------------|---------------|
-------------|--------------|--------------|--------------|---------------|
-------------|--------------|--------------|--------------|---------------|


  E  E   E   E      E  E   E   E     E  E  E  E     E  E  Q       E  E  E  E   
----------------|-------------10--|--7--8--7-----|-------------|--------------|
--------10--12--|--13-----10------|-----------8--|-------------|--------------|
-----9----------|-----------------|--------------|--7--9-------|--------------|
----------------|-----------------|--------------|--------7----|--------7--9--|
--9-------------|-----------------|--------------|-------------|-----7--------|
----------------|-----------------|--------------|-------------|--------------|


   E  E  E  E     E  E  Q       H           E  E  E  E     E  E  E  E   
---------------|-------------|-----------|--------------|--------------|
---------------|-------------|-----------|--------------|-----------5--|
------------9--|--7--5--4----|-----------|-----------5--|--7-----------|
--10-----7-----|-------------|--7--------|-----5--7-----|--------7-----|
---------------|-------------|-----------|--------------|--------------|
---------------|-------------|-----------|--------------|--------------|


  E  E  E  E     E  E  Q       E  E  E  E     E  E  E  E     E  E  E  E   
--------------|-------------|--------------|--------------|--------------|
-----5--8--5--|-------------|--------------|--------------|--8-----------|
--7-----------|--7--9-------|-----------5--|--7--------9--|-----9--7--9--|
--------------|--------7----|-----5--7-----|--------7-----|--------------|
--------------|-------------|--------------|--------------|--------------|
--------------|-------------|--------------|--------------|--------------|


   H            E  E   E   E      E  E   E   E     E  E  E  E     E  E  Q     
-------------|----------------|-------------10--|--7--8--7-----|-------------|
--10s--------|--------10--12--|--13-----10------|-----------8--|-------------|
-------------|-----9----------|-----------------|--------------|--7--9-------|
-------------|----------------|-----------------|--------------|--0-----7----|
-------------|--9-------------|-----------------|--------------|-------------|
-------------|----------------|-----------------|--------------|-------------|


  E  E  E  E      E  E  E  E     E  E  Q       H           E  E  E  E   
--------------|---------------|-------------|-----------|--------------|
--------------|---------------|-------------|-----------|--------------|
--------------|------------9--|--7--5--4----|-----------|--------------|
--------7--9--|--10-----7-----|-------------|--7--------|--------7--9--|
-----7--------|---------------|-------------|-----------|-----7--------|
--------------|---------------|-------------|-----------|--------------|


   E  E  E  E     E  E  Q        H                      
---------------|-------------|------------|-----------||
---------------|-------------|--10--------|-----------||
------------9--|--7--5--4----|------------|-----------||
--10-----7-----|-------------|---7--------|-----------||
---------------|-------------|------------|-----------||
---------------|-------------|------------|-----------||




Piste 2
     H           E  S S E  E     E  S S E  E     E  E  E  E     E  S S E  E   
E||-----------|---------------|---------------|--------------|---------------|
B||-----------|---------------|---------------|--------------|---------------|
G||-----------|---------------|---------------|--------------|---------------|
D||-----------|---------------|---------------|--------------|---------------|
A||-----------|--1--1-1-1--1--|--2--2-2-2--2--|--4--4--4--4--|--1--1-1-1--1--|
E||-----------|---------------|---------------|--------------|---------------|


  E  S S E  E     E  S S E  E     E  E  E  E     E  S S E  E     E  S S E  E   
---------------|---------------|--------------|---------------|---------------|
---------------|---------------|--------------|---------------|---------------|
---------------|---------------|--------------|---------------|---------------|
---------------|---------------|--------------|--1--1-1-1--1--|---------------|
--1--1-1-1--1--|--2--2-2-2--2--|--4--4--4--4--|---------------|---------------|
---------------|---------------|--------------|---------------|--2--2-2-2--2--|


  E  S S E  E     E  E  E  E     E  S S E  E     E  S S E  E     E  S S E  E   
---------------|--------------|---------------|---------------|---------------|
---------------|--------------|---------------|---------------|---------------|
---------------|--------------|---------------|---------------|---------------|
--0--0-0-0--0--|--------------|---------------|---------------|--0--0-0-0--0--|
---------------|--------------|--4--4-4-4--4--|---------------|---------------|
---------------|--0--0--0--0--|---------------|--2--2-2-2--2--|---------------|


  E  E  E  E      E  E  E  E     E  E  E  E     E  E  E  E     E  E  E  E   
--------------|---9-----------|--------------|--------------|--------------|
--------------|---9-----------|--------------|--------------|--------------|
--------------|--10-----------|--------------|-----------0--|-----------2--|
--------------|--11-----------|-----------3--|--------0-----|--------2-----|
--------------|--11-----------|-----0--3-----|-----2--------|--0--3--------|
--0--0--0--0--|---9-----------|--1-----------|--3-----------|--------------|


  E  E  E  E     E  E  E  E     E  E  E  E     E  E  E  E     H         
--------------|--------------|--------------|--------------|-----------|
--------------|--------------|-----------0--|--------------|-----------|
-----------0--|-----------2--|-----------0--|-----------2--|--L--------|
--------0-----|-----------3--|--------0-----|-----------4--|--L--------|
-----2--------|-----0--3-----|-----2--------|-----0--4-----|-----------|
--3-----------|--1-----------|--3-----------|--2-----------|-----------|


  H           H           H           H           H           H         
-----------|-----------|-----------|-----------|-----------|-----------|
--1--------|--3--------|--3--------|--5--------|-----------|-----------|
--2--------|--4--------|--2--------|--4--------|--2--------|--4--------|
--3--------|--5--------|--4--------|--2--------|--3--------|--5--------|
-----------|-----------|--5--------|--2--------|--3--------|--5--------|
-----------|-----------|-----------|-----------|--1--------|--3--------|


  H           E  E  E  E     E  E  E  E     E  E  E  E     E  E  E  E   
-----------|--------------|--------------|--------------|--------------|
--1--------|--------------|--------------|--------------|-----------1--|
--2--------|--------------|-----------2--|-----------4--|--------2-----|
--2--------|--------------|--------3-----|--------5-----|-----2--------|
--0--------|--0-----------|-----3--------|-----5--------|--0-----------|
-----------|--------------|--1-----------|--3-----------|--------------|


  E  E  E  E     E  E  E  E     E  E  E  E     E  E  E  E     E  E  E  E   
--------------|--------------|--------------|--------------|-----2--------|
--------------|--------------|--------------|--------------|--2-----2-----|
-----------4--|-----------2--|-----------4--|-----------2--|-----------2--|
--------5-----|--------3-----|--------5-----|--------4-----|--------------|
-----5--------|-----3--------|-----5--------|-----4--------|--------------|
--3-----------|--1-----------|--3-----------|--2-----------|--------------|


  E  E  E  E     E  E  E  E     E  E  E  E     E  E  E  E     E  E  E  E   
--------------|--------------|--------------|--------------|--------------|
--------------|--------------|-----------3--|--------------|--------------|
-----------2--|-----------4--|--------2-----|-----------4--|-----------2--|
--------3-----|--------5-----|-----4--------|--------2-----|--------3-----|
-----3--------|-----5--------|--5-----------|-----2--------|-----3--------|
--1-----------|--3-----------|--------------|--0-----------|--1-----------|


  E  E  E  E     E  E  E  E     E  E  E  E     E  E  E  E     E  E  E  E   
--------------|--------------|--------------|--------------|--------------|
--------------|-----------1--|--------------|--------------|--------------|
-----------4--|--------2-----|--------------|-----------0--|-----------2--|
--------5-----|-----2--------|-----------3--|--------0-----|--------2-----|
-----5--------|--0-----------|-----0--3-----|-----2--------|--0--3--------|
--3-----------|--------------|--1-----------|--3-----------|--------------|


  E  E  E  E     E  E  E  E     E  E  E  E     E  E  E  E     H         
--------------|--------------|--------------|--------------|-----------|
--------------|--------------|-----------0--|--------------|-----------|
-----------0--|-----------2--|-----------0--|-----------2--|--L--------|
--------0-----|-----------3--|--------0-----|-----------4--|--L--------|
-----2--------|-----0--3-----|-----2--------|-----0--4-----|-----------|
--3-----------|--1-----------|--3-----------|--2-----------|-----------|


  H           H           H           H           H           H         
-----------|-----------|-----------|-----------|-----------|-----------|
--1--------|--3--------|--3--------|--5--------|-----------|-----------|
--2--------|--4--------|--2--------|--4--------|--2--------|--4--------|
--3--------|--5--------|--4--------|--2--------|--3--------|--5--------|
-----------|-----------|--5--------|--2--------|--3--------|--5--------|
-----------|-----------|-----------|-----------|--1--------|--3--------|


  H           E  E  E  E     E  E  E  E     E  E  E  E     E  E  E  E   
-----------|--------------|--------------|--------------|--------------|
--1--------|--------------|--------------|--------------|-----------1--|
--2--------|--------------|-----------2--|-----------4--|--------2-----|
--2--------|--------------|--------3-----|--------5-----|-----2--------|
--0--------|--0-----------|-----3--------|-----5--------|--0-----------|
-----------|--------------|--1-----------|--3-----------|--------------|


  E  E  E  E     E  E  E  E     E  E  E  E     E  E  E  E     E  E  E  E   
--------------|--------------|--------------|--------------|-----2--------|
--------------|--------------|--------------|--------------|--2-----2-----|
-----------4--|-----------2--|-----------4--|-----------2--|-----------2--|
--------5-----|--------3-----|--------5-----|--------4-----|--------------|
-----5--------|-----3--------|-----5--------|-----4--------|--------------|
--3-----------|--1-----------|--3-----------|--2-----------|--------------|


  E  E  E  E     E  E  E  E     E  E  E  E     E  E  E  E     E  E  E  E   
--------------|--------------|--------------|--------------|--------------|
--------------|--------------|-----------3--|--------------|--------------|
-----------2--|-----------4--|--------2-----|-----------4--|-----------2--|
--------3-----|--------5-----|-----4--------|--------2-----|--------3-----|
-----3--------|-----5--------|--5-----------|-----2--------|-----3--------|
--1-----------|--3-----------|--------------|--0-----------|--1-----------|


  E  E  E  E     E  E  E  E     E  E  E  E     E  E  E  E     E  E  E  E   
--------------|--------------|--------------|--------------|--------------|
--------------|-----------1--|--------------|--------------|--------------|
-----------4--|--------2-----|-----------4--|-----------2--|-----------4--|
--------5-----|-----2--------|--------2-----|--------3-----|--------5-----|
-----5--------|--0-----------|-----2--------|-----3--------|-----5--------|
--3-----------|--------------|--0-----------|--1-----------|--3-----------|


  E  E  E  E     H          
--------------|--0--------||
-----------1--|-----------||
--------2-----|-----------||
-----2--------|-----------||
--0-----------|-----------||
--------------|-----------||
Login or Register to remove this ad.

1 comment on Because Princess Inada is Scolding Me

a little error

i forget a slide on the that will make you listen a false note