Ads

Orange (Toradora!) Guitar Tab

Submitted: Nov 21, 2013 by corntastic

4
Average: 4 (4 votes)
Download | Listen
Game: Toradora!
Composer(s): Yukari Hashimoto
Style: Transcription

AutoScroll: Slow | Medium | Fast
Orange
Toradora!
Funta3, Rie Kugimiya, Eri Kitamura, Yui Horie
corntastic
17 11 13


e----------------------------------------------------------------8--8-----
B--10--11--10--------10--11--10--------10--11--10------------10-----------
G--------------10----------------10----------------10----10---------------
D-------------------------------------------------------------------------
A-------------------------------------------------------------------------
E-------------------------------------------------------------------------

e--------------------------------------------------------8----------------
B--10--11--10--------10--11--10--------10--11--10-----------11--10--8-----
G--------------10----------------10----------------10---------------------
D-------------------------------------------------------------------------
A-------------------------------------------------------------------------
E-------------------------------------------------------------------------

______________________________________________________________________________________ x 2 


e-------------------------------------------------------------------------
B------------8-----------8--------------8----10---------------------------
G--7--10--9-------7--10-------7--10--9-----------10--10-------------------
D-------------------------------------------------------------------------
A-------------------------------------------------------------------------
E-------------------------------------------------------------------------

e--------------------------------------------------8--8-------------------
B------------8-----------8--10------------10--8------------11--10--8------
G--7--10--9-------7--10---------10----10----------------------------------
D-------------------------------------------------------------------------
A-------------------------------------------------------------------------
E-------------------------------------------------------------------------

e-------------------------------------------------------------------------
B--------8----------------------------------------------------------------
G--10---------10----------------------------------------------------------
D-------------------------------------------------------------------------
A-------------------------------------------------------------------------
E-------------------------------------------------------------------------
______________________________________________________________________________________


e-------------------------------------------8-----------------------------
B--10--10--8--10----10--8--10----10--8--10-----10--8----------------------
G-----------------------------------------------------10------------------
D-------------------------------------------------------------------------
A-------------------------------------------------------------------------
E-------------------------------------------------------------------------

e-------------------------------------------------------------------------
B--8--8------8----8------8----10--11--10----------------------------------
G--------10----------10---------------------------------------------------
D-------------------------------------------------------------------------
A-------------------------------------------------------------------------
E-------------------------------------------------------------------------

e-------------------------------------------8-----------------------------
B--10--10--8--10----10--8--10----10--8--10-----10--8----------------------
G-----------------------------------------------------10------------------
D-------------------------------------------------------------------------
A-------------------------------------------------------------------------
E-------------------------------------------------------------------------

e-----------------8--8----------------------------------------------------
B--8--8*-----8------------------------------------------------------------
G--------10---------------------------------------------------------------
D-------------------------------------------------------------------------
A-------------------------------------------------------------------------
E-------------------------------------------------------------------------
*skip the second time
______________________________________________________________________________________ x 2


e-------------------------------------------------------------------------
B--10------8--------------------------------------------------------------
G------10-----10----------------------------------------------------------
D-------------------------------------------------------------------------
A-------------------------------------------------------------------------
E------------------------------------------------------------------------- x 3

e-------------------------------------------------------------------------
B--10--11--10-------------------------------------------------------------
G-------------10----------------------------------------------------------
D-------------------------------------------------------------------------
A-------------------------------------------------------------------------
E-------------------------------------------------------------------------

Repeat everything and skip this section
______________________________________________________________________________________


e-------------------------------------------------------------------------
B--10------8--------------------------------------------------------------
G------10-----10----------------------------------------------------------
D-------------------------------------------------------------------------
A-------------------------------------------------------------------------
E-------------------------------------------------------------------------


e--------------8----------------------------------------------------------
B--10----11---------11----10------------8--8------------------------------
G-----------------------------------10--------10--------------------------
D-------------------------------------------------------------------------
A-------------------------------------------------------------------------
E------------------------------------------------------------------------- x 2 


e-------------------------------------------------------------------------
B--------8----------------------------------------------------------------
G--10---------10----------------------------------------------------------
D-------------------------------------------------------------------------
A-------------------------------------------------------------------------
E-------------------------------------------------------------------------

______________________________________________________________________________________


e-------------------------------------------8-----------------------------
B--10--10--8--10----10--8--10----10--8--10-----10--8----------------------
G-----------------------------------------------------10------------------
D-------------------------------------------------------------------------
A-------------------------------------------------------------------------
E-------------------------------------------------------------------------

e-------------------------------------------------------------------------
B--8--8------8----8------8----10--11--10----------------------------------
G--------10----------10---------------------------------------------------
D-------------------------------------------------------------------------
A-------------------------------------------------------------------------
E-------------------------------------------------------------------------

e-------------------------------------------8-----------------------------
B--10--10--8--10----10--8--10----10--8--10-----10--8----------------------
G-----------------------------------------------------10------------------
D-------------------------------------------------------------------------
A-------------------------------------------------------------------------
E-------------------------------------------------------------------------

e-----------------8--8----------------------------------------------------
B--8--8*-----8------------------------------------------------------------
G--------10---------------------------------------------------------------
D-------------------------------------------------------------------------
A-------------------------------------------------------------------------
E-------------------------------------------------------------------------
*skip the second time
______________________________________________________________________________________ x 2


e-------------------------------------------------------------------------
B--10------8--------------------------------------------------------------
G------10-----10----------------------------------------------------------
D-------------------------------------------------------------------------
A-------------------------------------------------------------------------
E------------------------------------------------------------------------- x 3

e-------------------------------------------------------------------------
B--10--11--10-------------------------------------------------------------
G-------------10----------------------------------------------------------
D-------------------------------------------------------------------------
A-------------------------------------------------------------------------
E-------------------------------------------------------------------------

e-------------------------------------------------------------------------
B--10------8--------------------------------------------------------------
G------10-----10----------------------------------------------------------
D-------------------------------------------------------------------------
A-------------------------------------------------------------------------
E------------------------------------------------------------------------- x 3

e-------------------------------------------------------------------------
B--10--11--10-------------------------------------------------------------
G-------------10----------------------------------------------------------
D-------------------------------------------------------------------------
A-------------------------------------------------------------------------
E-------------------------------------------------------------------------

e-------------------------------------------------------------------------
B--10------8--------------------------------------------------------------
G------10-----10----------------------------------------------------------
D-------------------------------------------------------------------------
A-------------------------------------------------------------------------
E-------------------------------------------------------------------------
Login or Register to remove this ad.

1 comment on Orange

Thank you

5

I love playing this, you did a marvelous job.