Ads

Holy Night (Toradora!) Guitar Tab

Submitted: Nov 12, 2013 by corntastic

3.666665
Average: 3.7 (3 votes)
Download | Listen
Game: Toradora!
Composer(s): Yukari Hashimoto
Style: Transcription

AutoScroll: Slow | Medium | Fast
Holy Night
Toradora!
Yukari Hashimoto, Rie Kugimiya, Eri Kitamura
corntastic
9 11 2013

Intro:

e--3s5--7-------------------5--------5------------------------------------
B------------------------------8--7---------------------------------------
G----------7--------7----7--------------7---------------------------------
D-------------------------------------------------------------------------
A-------------------------------------------------------------------------
E-------------------------------------------------------------------------

e--------------------------------5----5-----------------------------------
B-----8--8--8--8--7----5----7---------------------------------------------
G--7----------------------------------------------------------------------
D-------------------------------------------------------------------------
A-------------------------------------------------------------------------
E-------------------------------------------------------------------------

e--3s5--7-------------------5---------------------------------------------
B------------------------------8--7--5------------------------------------
G----------7--------7----7--------------7---------------------------------
D-------------------------------------------------------------------------
A-------------------------------------------------------------------------
E-------------------------------------------------------------------------

e----------------------5--------------------------------------------------
B--------7--------7-7-----------------------------------------------------
G--7--7-------------------------------------------------------------------
D-------------------------------------------------------------------------
A-------------------------------------------------------------------------
E-------------------------------------------------------------------------

e-----------5-------------------------------------------------------------
B--8-----------------7--------5-------------------------------------------
G--------------------------------------7----------------------------------
D-------------------------------------------------------------------------
A-------------------------------------------------------------------------
E-------------------------------------------------------------------------

______________________________________________________________________________________


e-------------------------------------------------------------------------
B-----7--7--9--9----7---------7-7--9--9----7------------------------------
G--6---------------------6--6---------------------------------------------
D-------------------------------------------------------------------------
A-------------------------------------------------------------------------
E-------------------------------------------------------------------------

e--------6--7--6--6-------------------------------------------------------
B--7--9----------------9--9--7--6-----------------------------------------
G------------------------------------6------------------------------------
D-------------------------------------------------------------------------
A-------------------------------------------------------------------------
E-------------------------------------------------------------------------

e-------------------------------------------------------------------------
B-------6----9----7--6--6--7--6-------7-----------------------------------
G--6-----------------------------8----------------------------------------
D-------------------------------------------------------------------------
A-------------------------------------------------------------------------
E-------------------------------------------------------------------------

e----------6--------------------------------------------------------------
B--9--9-------9--7--9--7----6---------------------------------------------
G-------------------------------------------------------------------------
D-------------------------------------------------------------------------
A-------------------------------------------------------------------------
E-------------------------------------------------------------------------

______________________________________________________________________________________


e-------------------------6-----------------------------------------------
B--7----7----9----9----9-----9--7--6--------------------------------------
G-------------------------------------------------------------------------
D-------------------------------------------------------------------------
A-------------------------------------------------------------------------
E-------------------------------------------------------------------------

e-------------------------------------------------------------------------
B--6g7--9--7--6---------6-------------------------------------------------
G------------------6---------8----8---------------------------------------
D-------------------------------------------------------------------------
A-------------------------------------------------------------------------
E-------------------------------------------------------------------------


e-----------------------6-----------9-------------------------------------
B--------7--------7--9-----9----------------------------------------------
G--8-8-8------------------------------------------------------------------
D-------------------------------------------------------------------------
A-------------------------------------------------------------------------
E-------------------------------------------------------------------------

e--9--7--6-------------6-------------------6------------------------------
B-----------9--7----9-----9L----------------------------------------------
G-------------------------------------------------------------------------
D-------------------------------------------------------------------------
A-------------------------------------------------------------------------
E-------------------------------------------------------------------------

______________________________________________________________________________________



e--3s5--7-------------------5--------5------------------------------------
B------------------------------8--7---------------------------------------
G----------7--------7----7--------------7---------------------------------
D-------------------------------------------------------------------------
A-------------------------------------------------------------------------
E-------------------------------------------------------------------------

e--------------------------------5----5-----------------------------------
B-----8--8--8--8--7----5----7---------------------------------------------
G--7----------------------------------------------------------------------
D-------------------------------------------------------------------------
A-------------------------------------------------------------------------
E-------------------------------------------------------------------------

e--3s5--7-------------------5---------------------------------------------
B------------------------------8--7--5------------------------------------
G----------7--------7----7--------------7---------------------------------
D-------------------------------------------------------------------------
A-------------------------------------------------------------------------
E-------------------------------------------------------------------------

e-----------------------5-------------------------------------------------
B--------7--------7-7-7---------------------------------------------------
G--7--7-------------------------------------------------------------------
D-------------------------------------------------------------------------
A-------------------------------------------------------------------------
E-------------------------------------------------------------------------

e-----------5-------------------------------------------------------------
B--8-----------------7--------5-------------------------------------------
G--------------------------------------7----------------------------------
D-------------------------------------------------------------------------
A-------------------------------------------------------------------------
E-------------------------------------------------------------------------

Repeat everything, skip the intro
Login or Register to remove this ad.

1 comment on Holy Night

GREAT!

5

Had to listen to the song again to remember what it was supposed to sound like, that being said, this is a great tab, thanks for tabbing it!
Don't know if you're still around making tabs, could you do Ame Iro Rondo if you are though?