Ads

Main Theme (Tomb Raider: The Last Revelation) Guitar Tab

Submitted: Oct 20, 2013 by scarecrowlol

5
Average: 5 (4 votes)
Download | Listen
Game: Tomb Raider: The Last Revelation
Composer(s): Peter Connelly
Style: Arrangement, Fingerstyle, Percussion

AutoScroll: Slow | Medium | Fast
Title: Main Theme
SubTitle: Tomb Raider IV
Artist: Peter Connely
Tabber: Mitch Jackson
Tempo = 112
T/S = 4/4

--------
LEGEND
--------

L = Let Ring
x = Dead Note
g = Grace Note Before Beat
r = Rest/ Pause
h = Hammer On
p = Pull Off
s = Slide
mf = Play at Normal Volume
mp = Play more Soflty


Had this song in my head lately so I decided to make an arrangement from a different angle to my earlier one and include bits that I
couldn't previously :3

The dead notes are intended to be mutes but can also be played as palm slaps.
 


     E  E  E  E  E  E  E  E       E  E  E  E  E  E  E  E       E  E  E  E  E  E  E  E       E  E  E  E  E  E  E  E     
D |-----1-----0----------------|-----1-----0----------------|-----1-----0----------------|-----1-----0----------------|
A |-----------------3-----1----|-----------------3-----1----|-----------------3-----1----|-----------------3-----1----|
F |--2-----2-----2-----2-------|--2-----2-----2-----2-------|--2-----2-----2-----2-------|--2-----2-----2-----2-------|
C |--0-------------------------|----------------------------|--0-------------------------|----------------------------|
G |----------------------------|--1-------------------------|----------------------------|--1-------------------------|
D |----------------------------|----------------------------|--3-------------------------|--1-------------------------|

                                                          
     ^                                                         ^
     E  E  E  E  E  E  E  E       E  E  E  E  E  E  E  E       Q.       E  E  E  E  E       E  E  E  E  E  E  E  E     
  |--------1-----0-------------|--------------0-------------|--------------------0-------|----------------------------|
  |--3--------3----------------|--1-----------------1-------|--3-----------3-------------|--1-------------------------|
  |--2-----------2-------------|--2-----------------2-------|--2--------------------2----|--------3-----2--0----------|
  |--0--0-----------0--2-------|--0--------0-----0----------|--0--------------0----------|-----------3--------3--2----|
  |--0--------------------0----|--1-----1--------------1----|--0--------0----------------|-----1----------------------|
  |----------------------------|-----1----------------------|----------------------------|--1-------------------------|

                                                         
     ^                            ^                            ^                            ^ 
     E  E  E  E  E  E  E  E       E  E  E  E  E  E  E  E       E  E  E  E  E  E  E  E       E  E  E  E  E  E  E  E     
  |--0-----------0-------------|----------------------------|--0-----------0-------------|----------------------------|
  |--6-----------------6-------|--------------------6-------|--6-----------------6-------|----------------------------|
  |--7--------7-----7----------|--7-----------7-------------|--7-----------7-------------|--7-----------------7--9----|
  |--7--7--x--------------7----|--8--------8-----8-----8----|--7--7--x--7-----------7----|--8--------------8----------|
  |--5--5--x-------------------|--8--8--x-------------------|--5--5--x--------5----------|--8--8--x-----8-------------|
  |----------------------------|--6--6--x-------------------|----------------------------|--6--6--x--6----------------|

                         
     ^                            ^                            ^                            ^  
     E  E  E  E  E  E  E  E       E  E  E  E  E  E  E  E       E  E  E  E  E  E  E  E       E  E  E  E  E  E  E  E     
  |--------------0-------------|----------------------------|--5-----------0-------------|----------------------------|
  |--6-----------6-----6-------|--------------6-----8-------|--6-----------------6-------|--------------------6-------|
  |--7-----------------7-------|--7-----------7-------------|--7--------7-----7----------|--7-----------7-------------|
  |--7--7--x--------7-----7----|--8--------8----------------|--7--7--x--------------7----|--8--------8-----8-----8----|
  |--5--5--x--5----------------|--8--8--x--------8-----8----|--5--5--x-------------------|--8--8--x-------------------|
  |----------------------------|--6--6--x-------------------|----------------------------|--6--6--x-------------------|

                          
     ^                            ^                            ^                              ^
     E  E  E  E  E  E  E  E       E  E  E  E  E  E  E  E       S S S S E  E  E  E  E  E       E  E  E  E  E  E  E  E     
  |--------------8-----6-------|--5-------------------------|----------------------0-------|----------------------------|
  |--6--------6----------------|--------------5-----8-------|--5h6p5h6p5-----5-----6-------|--------------6-------------|
  |--7-----7--------7-----7----|--7--------------7----------|--7----------7-----7----------|--7-----------7-------------|
  |----------------------------|--8--------8----------------|--7----------------------7----|--8--------8--------8-------|
  |--5--5--x-------------------|--------5--------------5----|--5---5---x-------------------|--8--8--x--------------8----|
  |----------------------------|--6--6--x-------------------|------------------------------|--6--6--x--------6----------|

                                mp                 
     ^                                                         ^                            ^
     W                            E  H.                E       W                            H.                  Q        
  |--7-------------------------|----------------------------|--0-------------------------|--0---------------------------|
  |--9-------------------------|----------------------------|--0-------------------------|--1-------------------0-------|
  |--9-------------------------|----------------------------|----------------------------|------------------------------|
  |--9-------------------------|----------------------------|--2-------------------------|------------------------------|
  |--7-------------------------|----------------------------|--2-------------------------|------------------------------|
  |----------------------------|-(7)-x-----------------L----|----------------------------|------------------------------|

                                mf                           2/4    mp      3/4                   
     ^                            ^                                           ^ 
     H.               E  S S      W                            H              H.                  
  |--0L---------------L--------|--0-------------------------|--r-----------|-(7)-----------------|
  |--3L---------------L--3h1---|--0-------------------------|--r-----------|---------------------|
  |--4L---------------L--------|--1-------------------------|--r-----------|--9------------------|
  |--2L---------------L--------|--2-------------------------|--r-----------|--9------------------|
  |--2L---------------L--------|--2-------------------------|--r-----------|--7------------------|
  |----------------------------|--0-------------------------|--r-----------|---------------------|

   4/4                           Crescendo ------------------------>
                                                                        ^ 
     S S H           E  Q          S S S S S S S S S S S S S S S S      Q.       E  E  E  E  E       E  E  E  E  E  E  E  E     
  |-----------------------------|-(0)-----(0)-----(0)-----(0)--------|--0-------------------------|-----1-----0----------------|
  |-----------------------------|------------------------------------|--6-------------------------|-----------------3-----1----|
  |-----------------------------|------------------------------------|--------------7-----5-------|--2-----2-----2-----2-------|
  |--9h7h6L----------L--3-------|--2-3-2---2-3-2---2-3-2---2-3-2-----|--7-------------------------|----------------------------|
  |-----------------------------|--------5-------5-------5-------5---|--7--------7-----7-----7----|--0-------------------------|
  |-----------------------------|------------------------------------|--5-------------------------|----------------------------|

                                                             mf                                                     

     E  E  E  E  E  E  E  E       E  E  E  E  E  E  E  E       E  E  Q     S E  E  E  E       E  E  E  E  E  E  E  E     
  |-----1-----0----------------|-----1-----0----------------|--------------0g1-----0-------|--------------0-------------|
  |-----------------3-----1----|-----------------3-----1----|--------3----------------1----|--------------1-----1-------|
  |--2-----2-----2-----2-------|--2-----2-----2-----2-------|-----2-------------2----------|--------3-------------------|
  |--0-------------------------|----------------------------|--0---------------------------|-----0----------------------|
  |----------------------------|--1-------------------------|------------------------------|--1-------------------------|
  |----------------------------|----------------------------|------------------------------|----------------------------|



     E  E  E  E  S E  E  E  E       E  E  H.                     E  E  E  E  E  E  E  E       E  E  Q     E  Q     E     
  |------------------------------|----------------------------|--------------0-----1-------|--------1-----0-------------|
  |--------3---------------------|----------------------------|--------3-------------------|--------1--------------1----|
  |-----2--------2g3-----2-------|----------------------------|-----2-----2-----2-----2----|----------------------------|
  |--0----------------0-----0----|-----0--3-------------------|--0-------------------------|-----0-----------0----------|
  |------------------------------|--1-------------------------|----------------------------|--1-------------------------|
  |------------------------------|----------------------------|----------------------------|----------------------------|

                                                          
                                                               ^ 
     E  E  Q     E  E  Q          E  E  E  E  Q     Q          E  E  E  E  E  E  E  E       E  E  Q     Q     Q        
  |--------------0-----1-------|----------------------------|--1-----------0-----1-------|--------------3-----0-------|
  |--3-----3-------------------|--------------------1-------|--3-----3-------------------|----------------------------|
  |-----2-----------2----------|--0-----2-----3-------------|-----2-----2-----2-----2----|--------2-----3-----0-------|
  |--0-------------------------|-----0-----0----------------|--0-------------------------|-----0----------------------|
  |----------------------------|--1-------------------------|----------------------------|--1-------------------------|
  |----------------------------|----------------------------|----------------------------|----------------------------|

      
     |--3--|  |--3--|  |--3--|  |--3--|       |--3--|  |--3--|  |--3--|  |--3--|
     E  E  E  E  E  E  E  E  E  E  E  E       E  E  E  E  E  E  E  E  E  E  E  E       E  E  E  E  E  E  E  E     
  |--1--0-----0----------------------------|----------------------------------------|-----1-----0----------------|
  |--------3-----3--1--3--1-----1----------|----------------------------------------|-----------------3-----1----|
  |--------------------------3-----3--2----|--3--2--0--2--0-----0-------------------|--2-----2-----2-----2-------|
  |--0-------------------------------------|-----------------3-----3--2--3--2--0----|--0-------------------------|
  |----------------------------------------|--1-------------------------------------|----------------------------|
  |----------------------------------------|----------------------------------------|----------------------------|

                                                                                          mp
                                                                                            ^
     E  E  E  E  E  E  E  E       E  E  E  E  E  E  Q          E  E  E  E  E  E  E  E       H           Q     Q        
  |-----1-----0----------------|-----1-----0----------------|-----1-----0----------------|--1-----------0-------------|
  |-----------------3-----1----|-----------------3----------|-----------------3-----1----|--3-----------------3-------|
  |--2-----2-----2-----2-------|--2-----2-----2-------------|--2-----2-----2-----2-------|--2-------------------------|
  |----------------------------|--0-------------------------|----------------------------|--0-------------------------|
  |--1-------------------------|----------------------------|--1-------------------------|----------------------------|
  |----------------------------|--3-----------------8s------|--1>------------------------|----------------------------|

                                                                                    fermata
     ^                            ^                            ^                            ^  
     H           H                H           H                H           Q.       E       H           H              
  |----------------------------|--1-----------0-------------|----------------------------|--1-----------0-------------|
  |--1-------------------------|----------------------------|--1--------------------r----|----------------------------|
  |--3-----------3-------------|--2-------------------------|--2-----------3--------r----|--2-------------------------|
  |--0-------------------------|--0-------------------------|----------------------------|--0-------------------------|
  |--1-------------------------|----------------------------|--1--------------------r----|----------------------------|
  |----------------------------|--3-------------------------|--1--------------------r----|--3-------------------------|


     ^                            ^
     H           H                W                            W
  |----------------------------|----------------------------|----------------------------||
  |--1-------------------------|----------------------------|----------------------------||
  |--2-----------3-------------|--2L------------------------|--L-------------------------||
  |----------------------------|--0L------------------------|--L-------------------------||
  |--1-------------------------|--0L------------------------|--L-------------------------||
  |--1-------------------------|----------------------------|----------------------------||



Login or Register to remove this ad.

2 comments on Main Theme

You always use such strange

5

You always use such strange tunings, but the tabs are always worth the hassle of switching. Great work.

I know right, thanks for

I know right, thanks for putting up with it ;P Thankfully this one is just 1 step down in tuning and my guitar has a built in tuner so changing doesn't take to long c: