Ads

unravel (Tokyo Ghoul √A) Guitar Tab

Submitted: Sep 26, 2016 by JanJanKabigting (Last updated: Sep 26, 2016)

5
Average: 5 (3 votes)
Download | Listen
Game: Tokyo Ghoul √A
Composer(s): Yutaka Yamada
Style: Arrangement, Fingerstyle, Tapped harmonics

AutoScroll: Slow | Medium | Fast
unravel (Fingerstyle)
Tokyo Ghoul
TK from Ling Tosite Sigure
Jan-Jan Kabigting (JanJanKabigting)
Sep. 25, 2016

                                    unravel                                     


                                                      TK from Ling Tosite Sigure
Track 1 (Capo 3)



     H.           E  E      Q    Q    E   Q    E     E  Q    Q     Q    E   
E||------------------3h--|--5----3----2p--0----5--|--L--3----2p----0----0--|
B||----------------------|------------------------|------------------------|
G||----------------------|------------------------|------------------------|
D||----------------------|------------------------|------------------------|
A||----------------------|------------------------|------------------------|
E||----------------------|------------------------|------------------------|


                                                  ^                       
  Q.     E  Q     E   E     H.           E  E     E  E  E  E  E  E  Q     
-------------------------|---------------------|-----------------7--7----|
--3------1--1h----3p--0--|--L------------L--0--|--0-----0--0-------------|
-------------------------|---------------------|--0----------------------|
-------------------------|---------------------|--5--5-------------------|
-------------------------|---------------------|--3-----------3----------|
-------------------------|---------------------|-------------------------|


                             ^                                                  
  E  E  E  E  E  E  E  E     E  E  E  E  E  E  Q       E  E  E  E  E  E  E  E   
-----------------------3--|--2-----2--2-----3--3----|-----------------------3--|
--------0--------0--------|--3-----3--3-----3--3----|--------0--------0--------|
--------------------------|--2--2-------------------|--------------------------|
-----2--------2-----------|--0-----------0----------|-----2--------2--------2--|
--------------------------|-------------------------|--------------------------|
--0--------0--------0-----|-------------------------|--0--------0--------0-----|


  ^           ^                                       
  E  E  E  E  E  E  E  E     E  E  E  E  E  E  E  E   
--5-----3-----2--0-----5--|-----3-----2-----0-----0--|
--0-----0-----0-----0--0--|-----0-----0-----0-----0--|
--0--0-----0-----0-----0--|--------0-----0-----0-----|
--------------------------|--------------------------|
--3-----------3-----------|--------------------------|
--------------------------|--0-----------0-----------|


  ^                                                     
  Q.     E  Q      E   E     E  E  E  E    E  E  E  E   
--------------------------|----------------------------|
--3------3--1----1g3p--0--|--------0----------0-----0--|
--2------2--2----2g2------|----------------------------|
--0-----------------------|-----2--------2g5--4-----0--|
--------------------------|--------------3g7-----------|
--------------------------|--0--------0----------0-----|


  ^                                                     ^  ^  ^  ^  ^  ^  ^     
  E  E  E  E  E  E  E  E     E  E  E  E  E  E  E  E     E  E  E  E  E  E  Q     
-----------------7--7-----|-----------------------3--|--2-----2--2-----3--3----|
--0-----0--0-----0--0-----|--------0--------0--------|--3--3--3--3--3--3--3----|
--0-----0--0-----------0--|--------------0-----------|--2--2--2--2--2--2--2----|
--5--5--------------------|-----2--------2--4-----2--|--0--------0--0--0--0----|
--3-----------3-----------|--------------------------|--x--------x-----x--x----|
--------------------------|--0--------0--------0-----|--x--x--x--x--x--x--x----|


  ^ v   v   v ^   ^   v ^   ^                                        
  S S S S S S S S S S S S S S E     S S S S S S S S S S S S S S S S  
---------------------------------|--7-----5---------7-----5---------|
---------------------------------|------0-------8---------------8---|
---------------------------------|----7-----7-----7---7-----7-----7-|
--2-----------2---2-----2---2----|------------7---------7-----7-----|
--2-2---2---2-2---2---2-2---2----|----------------------------------|
--0-0---0---0-0---0---0-0---0----|----------------------------------|


  ^ v   v   v ^   ^ v   v   v ^ v      ^        ^     ^     ^      
  S S S S S S S S S S S S S S S S      S  S S S E  E  E  E  E  E   
----------------------------------||---0h-3---0-0-----------------|
----------------------------------||---0--------0-----------------|
----------------------------------||*--0----0---0--0--4--2--4--0--|
--2-----------2---2-----------2---||*--2--------2-----0-----0-----|
--2-2---2---2-2---2-2---2---2-2-2-||---2--------x-----x-----x-----|
--0-0---0---0-0---0-0---0---0-0-0-||---0--------x-----x-----x-----|


  ^        ^     ^     ^           ^                             
  S  S S S E  E  E  E  E  S S      S  S S S E  E   S E   E.  E   
--0h-3---0-0-----x--3--2-------||--0h-3---0----5p--0-3p--0---2--|
--1--------1-----3-----3--3-3--||--0----0-----------------------|
--0----0---0--0--4-----4--4-4-*||--0----------------------------|
--2--------2-----4-----4--4-4-*||--2----------------------------|
--3--------x-----2-----x--2-2--||--2----------------------------|
--x--------x-----x-----x-------||--0--------0-------------------|


  ^          ^              ^          ^            ^           ^            
  E.  E.  E  Q    E   E     E.  E.  E  Q.     E     E.  E.   E  E  Q     E   
--3---3---3-------3S--7--|--7---5---5---------3--|--5---3p---2--------------|
--0---0---0--0-----------|--0---0---0--x---------|--3---3----------3p----0--|
--0---0------0-----------|--0---0------0---------|--2-----------2-----------|
--2----------2-----------|--5----------5---------|--0-----------0-----------|
--2----------x-----------|--3----------3---------|--x-----------x-----------|
--0----------x-----------|--x----------x---------|--x-----------x-----------|


    TH                    ^           ^              ^          ^           
    H.           E  E     E  S E.  E  Q    E   E     E.  E.  E  E  Q    E   
--<>3------------L--2--|--3--3-3---3-------3S--7--|--7---5---5-----3----3--|
--<>0------------------|--0--0-----0--0-----------|--5---5---5--x----------|
--<>0------------------|--0--------0--0-----------|--0---0------0----------|
--<>0------------------|--2-----------2-----------|--5----------5----------|
--<>2------------------|--2-----------x-----------|--3----------3----------|
--<>3------------------|--0-----------x-----------|--x----------x----------|


  ^          ^              ^                     
  E.  E.  E  Q    E   E     Q.     E   Q.     E   
--7---5---5-------2h--3--|--3--------------------|
--7---7---7--7-----------|--3-----------------3--|
--7---7------7-----------|--0------4p--2---------|
--0----------0-----------|--0--------------------|
--x----------x-----------|--2--------------------|
--x----------x-----------|--3--------------------|


    ^       ^     ^      ^          ^       ^     ^   ^   ^   
    E   S S E  E  E  S S E  E       E   S S E  E  E.  E.  E   
|---x-------x-----x-------------||--x-------x-----x---x---x--|
|---3p--0-0----------0-0----3---||--3p--0-0-------x---x---0--|
|*--0-------0--2--2------2-----*||--0-------0--2--2---2---2--|
|*--2-------2-----2------2-----*||--2-------2-----2---2---2--|
|---2-------2-----2------x------||--2-------2-----2---2---2--|
|---0-------x-----x------x------||--0-------x-----0---0---0--|


                          ^          ^             ^          ^            
  Q.     E  Q     Q       E.  E.  E  E.  E.  E     Q    E  E  E  E  E  E   
------------7p----5----|--7---5---5--5---3---3--|--2----3--2-----------2--|
---------0-------------|--5---5---5--5---5---5--|--3----3--3-----3--------|
-----------------------|--0---0------0---0------|--2----2-----2--2--2-----|
-----------------------|--5----------5----------|--0----------0-----------|
-----------------------|--3----------3----------|--x----------x-----------|
-----------------------|--x----------x----------|--x----------x-----------|


  ^          ^             ^    ^                    ^               ^        
  E.  E.  E  E  Q    E     Q    E   Q    Q    E      E.   E.   E  E  Q    E   
--7---5---5-----3----3--|--2----3--10------------|--12---10----------3----3--|
--8---8---8--8--5-------|--3----0---7----8----8--|---8--------12-----1-------|
--9---9------9--0-------|--4----4---7------------|---9---------------0-------|
--x----------x----------|--4----4----------------|----------------x----------|
--x----------x----------|--2----x----------------|----------------x--3-------|
--0-------------0-------|--x----x---7------------|---8-----------------------|


  ^           ^              ^   ^      ^    ^  v     ^           ^            
  Q    E   E  E  E  E  E     E.  E.  E  Q    E  E     Q    E   E  E  E  E  E   
--3----2p--0-----2-----3--|---------------------3--|--2----3p--2--------------|
--3----3------3-----3-----|--x---x-----------x--0--|--3-----------x--3-----3--|
--2-----------2-----------|--x---x---x--0----0--0--|--4-----------4-----4-----|
--0-----------0-----------|--2---2------2----2-----|--4-----------4-----------|
--x-----------x-----------|--2---2------2----2-----|--2-----------2-----------|
--x-----------x-----------|--0-------x-------x-----|--x-----------x-----------|


  ^      ^     ^      ^        ^      ^     ^     ^      
  E  S S E  E  E  S S E  E     E  S S E  E  E  E  E  E   
--7----5-5--5--5----3-3--3--|--2----3-3--2-----------2--|
--0------0--0--0------x--x--|--3------3--3--3--3--------|
--0--0---0-----0--0---0-----|--2--2---2-----2--2--2-----|
--5------5-----5------5-----|--0------0-----0-----0-----|
--3------3-----3------3-----|--x------x-----x-----x-----|
--x------x-----x------x-----|--x------x-----x-----x-----|


  ^        ^       ^      ^        ^    ^           ^      
  E  S  S  E   E   E  S S E  E     Q    E   Q    E  E  E   
--7--------x-------x------x-----|--x----x--10-------------|
--8----10-10--10--10----8-8--8--|--7----8---8----8--8--8--|
--9--------7---7---7------9--9--|--7----7---7-------7--7--|
--7--7-----9-------9--7---9-----|--9----9-----------x-----|
--7--------7-------9------7-----|--9----9-----------------|
--0--------0-------0------0-----|--7----7---7-------x-----|


   ^        ^      ^    ^  v     ^           ^            
   E  S  S  E   E  Q    E  E     Q    E   E  E  E  E  E   
--12----10-10------3----3--3--|--3----2p--0-----2-----3--|
---8--------8--12--1----1--1--|--3----3------3-----3-----|
---9--9-----9---9--0----0--0--|--2-----------2-----------|
------------x------2----2-----|--0-----------0-----------|
------------x------3----x-----|--x-----------x-----------|
---8---------------x----x-----|--x-----------x-----------|


                               ^            ^             
    E  E  E  E  E  E  E  E     E  S  E.  E  E  S  E.  E   
|------------3-----------3--|--7--Lh-3------7--Lh-3------|
|---------3-----------3-----|--0--0---------0--0---------|
|*-----0-----------0--------|--0---------0--0---------0--|
|*--------------------------|----------------------------|
|---3-----------3-----------|----------------------------|
|---------------------------|--0------------0------------|


  ^            ^               ^                           
  E  S  E.  E  E  S  E.  E     E  S S E  E  E  E  E  E     
--5--Lh-2------5--Lh-2---3--|--7----5----3-----2-----3---||
--3--3---------3--3------3--|--8--8------0-----0-----0---||
--2---------2--2---------2--|--0---------------------0--*||
--0------------0------------|---------------------------*||
----------------------------|----------------------------||
----------------------------|--0------0-----0-----0------||


  ^                        ^           ^              ^           ^            
  E  E  E  E  Q.     E     E  S E.  E  E  S E.  E     E  S E.  E  E  S E.  E   
--2--------3---------3--|--5----5---3--5----5---3--|--2----2---2--2----3---3--|
--0-----0---------------|--0--0-----0--0--0-----0--|--0--0-----0--0--0-----0--|
--0--0------------------|--0-----------0-----------|--0-----------0-----------|
------------------------|--0-----------0-----------|--2-----------2-----------|
------------------------|--3-----------3-----------|--2-----------2-----------|
--0-----------0---------|--x-----------x-----------|--0-----------0-----------|


  ^           ^              ^           ^            
  E  S E.  E  E  S E.  E     E  S E.  E  E  S E.  E   
--5----5---3--5----5---3--|--2----2---2--2----0---3--|
--3--3-----3--3--3-----3--|--0--0-----0--0--0-0------|
--2-----------2-----------|--0-----------0----0------|
--0-----------0-----------|--2-----------2-----------|
--x-----------x-----------|--2-----------2-----------|
--x-----------x-----------|--0-----------0-----------|


  ^      ^     ^      ^        ^      ^     ^      ^      
  E  S S E  E  E  S S E  E     E  S S E  E  E  S S E  E   
--5----5----3--5----5----3--|--5----5----3--5----5----3--|
--0--0---x--0--0--0---x--0--|--0--0---x-----0--0---x-----|
--0------0-----0------0-----|--0------0-----0------0-----|
--0------0-----0------0-----|--2------2-----2------2-----|
--3------3-----3------3-----|--2------2-----2------2-----|
--x------x-----x------x-----|--0------x-----x------x-----|


  ^      ^     ^      ^        ^     ^     ^   v   v   
  E  S S E  E  E  S S E  E     E  E  E  E  E.  E.  E   
--5----5----3--5----3----5--|-----3-----0--0---0---0--|
--3--3---3-----3--3---3-----|--3-----3-----0---0---0--|
--2------2-----2------2-----|--2-----2-----0---0---0--|
--0------0-----0------0-----|--0-----0-----2-------2--|
--x------x-----x------x-----|--x-----x-----2----------|
--x------x-----x------x-----|--x-----x-----0----------|


    ^          ^    ^  v     ^          ^    ^  v     ^          ^    ^  v   
    E.  E.  E  Q    E  E     E.  E.  E  Q    E  E     E.  E.  E  Q    E  E   
|---0----------0----0--0--|--3----------2----------|--x---x---x--x----------|
|---1----------1----1--1--|--3----------3----3-----|--0----------0----0--0--|
|*--0----------0----0--0--|--2----------2----2--2--|--0----------0----0--0--|
|*--2----------2-------2--|--0----------0----0--0--|--2----------2----2-----|
|---3---x---x--3----------|--x---x---x--x----------|--2----------2----------|
|---x---x---x--x----------|--x---x---x--x----------|--0---x---x--x----------|


  ^   ^   ^  ^    ^  v       ^      ^     ^      ^      
  E.  E.  E  Q    E  E       E  S S E  E  E  S S E  E   
--5---5---5--5-----------||--7----3----3--7----3----3--|
--3---3---3--3----3--3---||--5--5---5-----5--5---5-----|
--x---x---x--x----x--x--*||--x------x-----x------x-----|
--4---4---4--4----4--4--*||--5------5-----5------5-----|
--2---2---2--2----2------||--3------3-----3------3-----|
--x---x---x--x-----------||--x------x-----x------x-----|


  ^      ^     ^    ^  v     ^      ^     ^     ^        ^   ^   ^  ^    ^  v   
  E  S S E  E  Q    E  E     E  S S E  E  E.  S E  E     E.  E.  E  Q    E  E   
--5----5----2-------------|--3----3----3--3---2-------|--x---x---x--x----x-----|
--3--3---3-----3----3--3--|--0--0---x-----0-----x--3--|--3---3---3--3----3--3--|
--2------2-----2----2--2--|--0------0-----0-----0--0--|--4---4---4--4----4--4--|
--0------0-----0----0-----|--2------2-----2-----2-----|--4---4---4--4----4-----|
--x------x-----x----x-----|--2------2-----2-----2-----|--2---2---2--2----------|
--x------x-----x----x-----|--0------x-----x-----x-----|--x---x---x--x----x-----|


  ^ v ^ v ^ v ^ v ^ v ^ v ^       ^ v ^ v ^ v ^ v ^ v ^ v ^     
  S S S S S S S S S S S S Q       S S S S S S S S S S S S Q     
--0-0-0-0-0-0-0-0-0-0-0-0-0----|--3-3-3-3-3-3-3-3-3-3-3-3-3----|
--1-1-1-1-1-1-1-1-1-1-1-1-1----|--3-3-3-3-3-3-3-3-3-3-3-3-3----|
--0-0-0-0-0-0-0-0-0-0-0-0-0----|--2---2---2---2---2---2---2----|
--2---2---2---2---2---2---2----|--0-----------------------0----|
--3-----------------------3----|--x-----------------------x----|
--x-----------------------x----|--x-----------------------x----|


  ^ v ^ v ^ v ^ v ^ v ^ v ^       ^ v ^ v ^ v ^ v ^ v ^ v ^     
  S S S S S S S S S S S S Q       S S S S S S S S S S S S Q     
--3-3-3-3-3-3-3-3-3-3-3-3-3----|--5-5-5-5-5-5-5-5-5-5-5-5-5----|
--0-0-0-0-0-0-0-0-0-0-0-0-0----|--3-3-3-3-3-3-3-3-3-3-3-3-3----|
--0-0-0-0-0-0-0-0-0-0-0-0-0----|--x-x-x-x-x-x-x-x-x-x-x-x-x----|
--2---2---2---2---2---2---2----|--4---4---4---4---4---4---4----|
--2-----------------------2----|--2-----------------------2----|
--0-----------------------0----|--x-----------------------x----|


    ^       ^     ^      ^        ^       ^     ^      ^        
    E   S S E  E  E  S S E  E     E   S S E  E  E  S S E  E     
|---x-------x-----x------------|--x-------x-----x-------------||
|---3p--0-0----------0-0----3--|--3p--0-0-----------------3---||
|*--0-------0--2--2------2-----|--0-------0--2--2--0-0-------*||
|*--2-------2-----2------2-----|--2-------2-----2------2-----*||
|---2-------2-----2------x-----|--2-------2-----2------2------||
|---0-------x-----x------x-----|--0-------x-----x------x------||


   ^       ^     ^      ^          ^       ^     ^   ^   ^   
   E   S S E  E  E  S S E  E       E   S S E  E  E.  E.  E   
---x-------x-----x-------------||--x-------x-----x---x---x--|
---3p--0-0----------0-0----3---||--3p--0-0-------x---x---0--|
*--0-------0--2--2------2-----*||--0-------0--2--2---2---2--|
*--2-------2-----2------2-----*||--2-------2-----2---2---2--|
---2-------2-----2------x------||--2-------2-----2---2---2--|
---0-------x-----x------x------||--0-------x-----0---0---0--|


  ^    ^     ^             ^          ^             ^          ^            
  Q    E  E  Q     Q       E.  E.  E  E.  E.  E     Q    E  E  E  E  E  E   
--7----7-----7p----5----|--7---5---5--5---3---3--|--2----3--2-----------2--|
--0----0--0--0----------|--5---5---5--5---5---5--|--3----3--3-----3--------|
--0----0-----0----------|--0---0------0---0------|--2----2-----2--2--2-----|
--2----2----------------|--5----------5----------|--0----------0-----------|
--x----x-----x----------|--3----------3----------|--x----------x-----------|
--x----x-----x----------|--x----------x----------|--x----------x-----------|


  ^          ^             ^    ^                    ^               ^        
  E.  E.  E  E  Q    E     Q    E   Q    Q    E      E.   E.   E  E  Q    E   
--7---5---5-----3----3--|--2----3--10------------|--12---10----------3----3--|
--8---8---8--8--5-------|--3----0---7----8----8--|---8--------12-----1-------|
--9---9------9--0-------|--4----4---7------------|---9---------------0-------|
--x----------x----------|--4----4----------------|----------------x----------|
--x----------x----------|--2----x----------------|----------------x--3-------|
--0-------------0-------|--x----x---7------------|---8-----------------------|


  ^           ^              ^   ^      ^    ^  v     ^           ^            
  Q    E   E  E  E  E  E     E.  E.  E  Q    E  E     Q    E   E  E  E  E  E   
--3----2p--0-----2-----3--|---------------------3--|--2----3p--2--------------|
--3----3------3-----3-----|--x---x---x-------x--0--|--3-----------x--3-----3--|
--2-----------2-----------|--x---x------0----0--0--|--4-----------4-----4-----|
--0-----------0-----------|--2---2------2----2-----|--4-----------4-----------|
--x-----------x-----------|--2---2------2----2-----|--2-----------2-----------|
--x-----------x-----------|--0-------x-------x-----|--x-----------x-----------|


    ^      ^     ^      ^        ^      ^     ^     ^      
    E  S S E  E  E  S S E  E     E  S S E  E  E  E  E  E   
|---7----5-5--5--5----3-3--3--|--2----3-3--2-----------2--|
|---0------0--0--0------x--x--|--3------3--3--3--3--------|
|*--0--0---0-----0--0---0-----|--2--2---2-----2--2--2-----|
|*--5------5-----5------5-----|--0------0-----0-----0-----|
|---3------3-----3------3-----|--x------x-----x-----x-----|
|---x------x-----x------x-----|--x------x-----x-----x-----|


  ^        ^       ^      ^        ^    ^           ^      
  E  S  S  E   E   E  S S E  E     Q    E   Q    E  E  E   
--7--------x-------x------x-----|--x----x--10-------------|
--8----10-10--10--10----8-8--8--|--7----8---8----8--8--8--|
--9--------7---7---7------9--9--|--7----7---7-------7--7--|
--7--7-----9-------9--7---9-----|--9----9-----------x-----|
--7--------7-------9------7-----|--9----9-----------------|
--0--------0-------0------0-----|--7----7---7-------x-----|


   ^        ^      ^    ^  v     ^           ^            
   E  S  S  E   E  Q    E  E     Q    E   E  E  E  E  E   
--12----10-10------3----3--3--|--3----2p--0-----2-----3--|
---8--------8--12--1----1--1--|--3----3------3-----3-----|
---9--9-----9---9--0----0--0--|--2-----------2-----------|
------------x------2----2-----|--0-----------0-----------|
------------x------3----x-----|--x-----------x-----------|
---8---------------x----x-----|--x-----------x-----------|


  ^          ^    ^  v     ^          ^    ^  v     ^                          
  E.  E.  E  Q    E  E     E.  E.  E  Q    E  E     Q     E   E  E  E  E   E   
--3----------3----3--3--|--3----------2----------|--x------------x------------|
--5----------5----5--5--|--3----------3----3-----|--8p----7--10-----8-----10--|
--5----------5----5--5--|--2----------2----2--2--|--0---------0-----0------0--|
--5----------5-------5--|--0----------0----0--0--|--9---------9---------------|
--3---x---x--3----------|--x---x---x--x----------|--x------------x------------|
--x---x---x--x----------|--x---x---x--x----------|--0------------------0------|


  ^                          ^                         
  E  S E.  E  Q    E  E      Q      E   E  E  Q    E   
--x--7--------7----7--7--|--12p----10-----------------|
--------------7----7--7--|---8---------12-----8----8--|
-------x---x--7----7--9--|---9----------9-----9-------|
--9-----------9----9-----|---x-------------x----------|
--9-----------x----------|---x-------------x----------|
--7----x---x--x----------|---8----------------8-------|


   ^                              ^                        
   Q      E   E  E   Q     E      Q      E  E  E  Q    E   
--12p----10-------------------|--12p----10--7-------------|
--10---------12-----12--------|---0---------0-----8----8--|
--11---------11-----12----12--|---0---------------0-------|
---0-----------------0--------|---x------------x----------|
---x-------------x------------|---x------------x----------|
---x-------------x------------|---0---------------0-------|


   ^                           ^                         
   Q     E  E  E  Q    E       E  E   E  E  E  E  E  E   
--12----10--7--------------||--7---------7--------7-----|
---7--------7-----8----8---||--8-----10--------8--------|
---7--------------7-------*||--0--0---------0--------0--|
---x-----------x----------*||--0------------------------|
---x-----------x-----------||--x------------------------|
---7--------------7--------||--8------------------------|


  ^                          ^                          
  E  E  E  E  E  E  E  E     E  E  E   E  E  E   E  E   
--5--------5--------5-----|--3-----2h--3-----2h--3-----|
--8-----8--------8--------|--3-------------------------|
--0--0--------0--------0--|--2--2---------2---------2--|
--------------------------|--0-------------------------|
--------------------------|----------------------------|
--0-----------------------|----------------------------|


  ^                              ^                        
  E  E  E  E  E  E    E   E      E  E  E  E  E  E  E  E   
--5--------5--------5g7---3---|--5-----3-----2-----------|
--8-----8--------8-------(8)--|--0-----------------------|
--9--9--------9---------------|--0--0-----0-----0-----0--|
------------------------------|--------------------------|
------------------------------|--3-----------------3-----|
--0---------------------------|--------------------------|


                             ^                        
  E  E  E  E  E  E  E  E     E  E  E  E  E  E  E  E   
-----------------------3--|--5-----------7--------7--|
--------0--------0--------|--7-----8-----------7-----|
--------------------------|--7--7-----7-----7--------|
-----2--------2--------2--|--0-----------------------|
--------------------------|--------------------------|
--0--------0--------0-----|--------------------------|


                             ^                                                  
  E  E  E  E  E  E  E  E     E  E  E  E  E  E  Q       E  E  E  E  E  E  E  E   
--------------------------|-----------------7--7----|-----------------------3--|
--------0--------0-----0--|--0-----0--0-------------|--------0--------0--------|
--------------------------|--0----------------------|--------------------------|
-----2--------2-----------|--5--5-------------------|-----2--------2--------2--|
--------------------------|--3-----------3----------|--------------------------|
--0--------0--------0-----|-------------------------|--0--------0--------0-----|


  ^                        ^                               
  Q    E  Q     E  Q       E  S E  S E  S E  S S  S  S  S  
--2----2--2h----3--3----|--7----5----3----2----5p-3p-2p-0-|
--3---------------------|--0--0---------0-----------------|
--2---------------------|--0-------0---------0------------|
--0---------------------|---------------------------------|
--x---------------------|---------------------------------|
--x---------------------|--0------------------------------|


  ^                                 ^                  
  E  S E  S E  S E  S S  S  S  S    W                  
--7----5----3----2----5p-3p-2h-3-|--3----------------||
--0--0---------0-----------------|--0----------------||
--0-------0---------0------------|--0----------------||
---------------------------------|--2----------------||
---------------------------------|--2----------------||
--0------------------------------|--0----------------||




Duration Legend
---------------
W - whole
H - half
Q - quarter
E - 8th
S - 16th
T - 32nd
X - 64th
. - note dotted
|-n-|  - n-tuplets


Tablature Legend
----------------
L - tied note
x - dead note
g - grace note
(n) - ghost note
> - accentuded note
NH - natural harmonic
AH - artificial harmonic
TH - tapped harmonic
SH - semi harmonic
PH - pitch harmonic
h - hammer on
p - pull off
b - bend
br - bendRelease
pb - preBend
pbr - preBendRelease
brb - bendReleaseBend
\n/ - tremolo bar dip
\n - tremolo bar dive
-/n - tremolo bar Release up
/n\ - tremolo bar inverted dip
/n - tremolo bar return
-\n - tremolo bar Release down
S - shift slide
s - legato slide
/ -  slide into from below or out of upwards
\ -  slide into from above or out of downwards
~ - vibrato
W - wide vibrato
tr - trill
TP - tremolo picking
T - tapping
S - slap
P - pop
< - fade in
^ - brush up
v - brush down
Login or Register to remove this ad.

2 comments on unravel

Bad ass but holy crap it's

Bad ass but holy crap it's difficult in some parts

Insane tab, just what I

5

Insane tab, just what I needed to break my fingers ;)