Schmetterling (Tokyo Ghoul √A) Ukulele Tab

Submitted: May 16, 2015 by CandyCane52

3
Average: 3 (2 votes)
Download | Listen
Game: Tokyo Ghoul √A
Composer(s): Yutaka Yamada
Style: Transcription

AutoScroll: Slow | Medium | Fast
Schmetterling
Tokyo Ghoul Root A
Yutaka Yamada
CandyCane52
08/05/2015
 :00						:30
G---------------------------------------------------------------------------------------------------------------------
C-1--1--1--------1-3-1----1--1--1--------3------------4---------------1---1-3-1-------4------------1-------------3----
E-4-----2--0-2-4-0--------4-----2--0-2-4-4---4------------4------2--0-2-4-0---------------4-----2--0-2-4------4-----4-
A----------------------------------------2-1------11----4-----9-------------------11----4----9------------2-1-------2-
 :52
G-----------------------------------------------------------------------------
C-----1--1--------------4--------3-------1---1----1---1--------1-----1--------
E-4--------0--2---2-4---4-----------4----2-4----0-2-4----------4-----4--4-----
A---2-4---------------6-7--7-6-4-2-----------------------2--4-----6-----7--11-
Login or Register to remove this ad.