Ads

Title Theme (Hollow Knight) Guitar Tab

Submitted: Dec 17, 2020 by Emi (Last updated: Dec 18, 2020)

5
Average: 5 (1 vote)
Download | Listen
Game: Hollow Knight
Composer(s): Christopher Larkin
Style: Arrangement, Fingerstyle, Pinch harmonics

Click here for a video example.

AutoScroll: Slow | Medium | Fast
Title : Hollow Knight
Composer : Christopher Larkin
Arranged for Guitar by Emilien Delcour
Tempo = 100
Guitar


Pinched Harmonics on the 1st part, 2nd variation with regular fingerstyle playing, Pinched Harmonics again during conclusion. 
(demonstration on video : https://youtu.be/sEGV4cjmYbk )
                                                                               
E |----------------|----------------|-------|----------------|----------------|
B |--1-----1-------|--3--4--3-------|-------|--1-------------|----------------|
G |-----0--1-------|----------------|--0----|-----0--1-------|--0-----0-------|
D |----------------|-----------3----|-------|-----1--3-------|-----3-----0----|
A |--3-------------|--------3-------|-------|--3-------------|--------3-------|
E |----------------|----------------|-------|----------------|----------------|

                                                                            
----------------|----------------|--------1-------|-------|--3-------------|
----------------|--1-----1-------|--3--4----------|-------|-----4--3-------|
----------------|-----0--1-------|-----------0----|-------|-----------5----|
--1--0----------|----------------|----------------|--3----|--------3-------|
--------1-------|--3-------------|--------1-------|-------|-----6----------|
----------------|----------------|----------------|-------|--4-------------|

                                                                   
----------------|----------------|-------|-------|----------------|
--------1-------|----------------|-------|--4----|--1-----1-------|
--3-------------|----------------|-------|-------|-----0--1-------|
----------------|-----3----------|-------|-------|----------------|
-----------1----|--3-----3--1----|--0----|--1----|--3-------------|
--------1-------|----------------|-------|-------|-----------1----|

                                                                    
----------------|----------------|----------------|----------------|
--3--4--3-------|----------------|--1-------------|----------------|
----------------|--0-------------|--0--0--1-------|--0-----0-------|
-----------3----|-----3----------|-----1--3-------|-----3-----1----|
--------3-------|--------1-------|--3-------------|--------1-------|
----------------|----------------|-----------4----|----------------|

                                                                                
----------------|----------------|--------1-------|--------------------3--4----|
----------------|--1-----1-------|--3--4----------|--------------------1-------|
----------------|----------------|----------------|--------0-----1-------------|
--0-------------|-----1--3-------|----------------|--3-------------------------|
--------1-------|----------------|-----------3----|----------------------------|
-----3----------|--4-------------|--------1-------|----------------------------|

                                                                    
--3-------------|----------------|----------------|----------------|
--------4-------|--------1-------|-----------6----|--8s----8-------|
-----0----------|-----3----------|--3-------------|-----0-----0----|
--1-------------|----------------|-----3-----3----|--------6-------|
----------------|--3--------3----|--------5-------|----------------|
--------4--6----|--------4-------|--6-------------|--8-------------|

                                                                    
----------------|----------------|----------------|----------------|
--8-----8-------|--8-----8-------|--8-----8-------|--8-------------|
-----0----------|--0-----0-------|----------------|----------------|
--6-------------|----------------|----------------|-----1--0-------|
-----------8----|-----8-----8----|-----6--8--6----|--8-------------|
--------8-------|----------------|--8-------------|--------1-------|

        ^
----------------|----------------|----------------|
----------------|--0-------------|--------1-------|
-----------4----|-----0--1--0----|--1--0----------|
--------0-------|----------------|-----------3----|
--1-----1-------|--3-------------|--------3-------|
--------1-------|----------------|----------------|


----------------------------------------|--1-------------|--------3-------|
--------------------------3-----4-------|----------------|----------------|
--0-----------------0-------------------|----------------|----------------|
-----------3----------------------------|-----1--3--1----|--3--1-----0----|
----------------------------------------|--3-------------|--------1-------|
----------------------------------------|----------------|----------------|


----------------|--6----||
--------3-------|-------||
-----3----------|-------||
--3-------------|-------||
----------------|-------||
----------------|-------||

Login or Register to remove this ad.