Ads

Hitotoki (Time Hollow) Guitar Tab

Submitted: Oct 31, 2010 by Kiku

5
Average: 5 (1 vote)
Download | Listen
Game: Time Hollow
Composer(s): Masanori Akita, Chūji Nagaoka, Junichi Yoshida
Style: Fingerstyle, Transcription

This song is also called A Moment

AutoScroll: Slow | Medium | Fast
Hitotoki
Time Hollow
Composed by Jun'ichi Yoshida
Tabbed by Kiku
2010-10-31

                                   Hitotoki                                     


                                                                            CUBE
Guitar 1



      Q    E  Q    Q    E     E  E  H        Q       Q    E  Q    Q    E   
E||------------------------|----------------------|-----------------------|
B||-----------0---------0--|--L-----0-------------|----------0---------0--|
G||*-----------------------|----------------------|-----------------------|
D||*-------0-------0-------|-----0----------------|-------0-------0-------|
A||------------------------|----------------------|-----------------------|
E||---3--------------------|----------------------|--3--------------------|


  E  E  H        Q       Q    E  Q    Q    E     E  E  H        Q     
----------------------|-----------------------|----------------------|
--L-----0-------------|----------0---------0--|--L-----0-------------|
----------------------|-----------------------|----------------------|
-----0----------------|-------0-------0-------|-----0----------------|
----------------------|-----------------------|----------------------|
----------------------|--3--------------------|----------------------|


  Q    E  Q    Q    E     E  E  H        Q       Q    E  Q    Q    E   
-----------------------|----------------------|-----------------------|
----------0---------0--|--L-----0-------------|----------0---------0--|
-----------------------|----------------------|-----------------------|
-------2-------2-------|-----2----------------|-------0-------0-------|
--3--------------------|----------------------|-----------------------|
-----------------------|----------------------|--3--------------------|


  E  E  H        Q       Q    E  Q    Q    E     E  E  H        Q     
----------------------|-----------------------|----------------------|
--L-----0-------------|----------0---------0--|--L-----0-------------|
----------------------|-----------------------|----------------------|
-----0----------------|-------2-------2-------|-----2----------------|
----------------------|--3--------------------|----------------------|
----------------------|-----------------------|----------------------|


  Q    E  Q    Q    E     E  E  H        Q       Q    E  Q    Q    E   
-----------------------|----------------------|-----------------------|
-----------------------|----------------------|-----------------------|
----------2---------2--|--L-----2-------------|----------0---------0--|
-------0-------0-------|-----0----------------|-----------------------|
--2--------------------|----------------------|--0----3-------3-------|
-----------------------|----------------------|-----------------------|


  E  E  H        Q       Q    E  Q    Q    E     E  E  H        Q     
----------------------|-----------------------|----------------------|
----------------------|----------0---------0--|--L-----0-------------|
--L-----0-------------|-----------------------|----------------------|
----------------------|-------0-------0-------|-----0----------------|
-----3----------------|-----------------------|----------------------|
----------------------|--3--------------------|----------------------|


  Q    E  Q    Q    E     E  E  H        Q       Q    E  Q    Q    E   
-----------------------|----------------------|-----------------------|
----------0---------0--|--L-----0-------------|----------0---------0--|
-----------------------|----------------------|-----------------------|
-------0-------0-------|-----0----------------|-------0-------0-------|
-----------------------|----------------------|-----------------------|
--3--------------------|----------------------|--3--------------------|


  E  E  H        Q       Q    E  Q    Q    E     E  E  H        Q     
----------------------|-----------------------|----------------------|
--L-----0-------------|----------0---------0--|--L-----0-------------|
----------------------|-----------------------|----------------------|
-----0----------------|-------2-------2-------|-----2----------------|
----------------------|--3--------------------|----------------------|
----------------------|-----------------------|----------------------|


  Q    E  Q    Q    E     E  E  H        Q       Q    E  Q    Q    E   
-----------------------|----------------------|-----------------------|
----------0---------0--|--L-----0-------------|----------0---------0--|
-----------------------|----------------------|-----------------------|
-------0-------0-------|-----0----------------|-------2-------2-------|
-----------------------|----------------------|--3--------------------|
--3--------------------|----------------------|-----------------------|


  E  E  H        Q       Q    E  Q    Q    E     E  E  H        Q     
----------------------|-----------------------|----------------------|
--L-----0-------------|-----------------------|----------------------|
----------------------|----------2---------2--|--L-----2-------------|
-----2----------------|-------0-------0-------|-----0----------------|
----------------------|--2--------------------|----------------------|
----------------------|-----------------------|----------------------|


  Q    E  Q    Q    E     E  E  H        Q       Q    E  Q    Q    E   
-----------------------|----------------------|-----------------------|
-----------------------|----------------------|----------0---------0--|
----------0---------0--|--L-----0-------------|-----------------------|
-----------------------|----------------------|-------0-------0-------|
--0----3-------3-------|-----3----------------|-----------------------|
-----------------------|----------------------|--3--------------------|


  E  E  H        Q       Q    E  Q    Q    E     E  E  H        Q     
----------------------|-----------------------|----------------------|
--L-----0-------------|----------0---------0--|--L-----0-------------|
----------------------|-----------------------|----------------------|
-----0----------------|-------0-------0-------|-----0----------------|
----------------------|-----------------------|----------------------|
----------------------|--3--------------------|----------------------|


  Q    E  Q    Q    E     E  E  H        Q       Q    E  Q    Q    E   
-----------------------|----------------------|-----------------------|
-----------------------|----------------------|----------0---------0--|
----------2---------2--|--L-----2-------------|-----------------------|
-------0-------0-------|-----0----------------|-------2-------2-------|
--2--------------------|----------------------|--3--------------------|
-----------------------|----------------------|-----------------------|


  E  E  H        Q       Q    E  Q    Q    E     E  E  H        Q     
----------------------|-----------------------|----------------------|
--L-----0-------------|-----------------------|----------------------|
----------------------|----------2---------2--|--L-----2-------------|
-----2----------------|-------0-------0-------|-----0----------------|
----------------------|--2--------------------|----------------------|
----------------------|-----------------------|----------------------|


  Q    Q    Q    Q       Q    E  Q    E  Q       Q    E  Q    Q    E   
----------------------|-----------------------|-----------------------|
----------------------|----------0------------|-----------------------|
-------0--------------|-----------------------|----------2---------2--|
--2---------0----4----|-------2---------------|-------0-------0-------|
----------------------|--3---------------3----|--2--------------------|
----------------------|-----------------------|-----------------------|


  E  E  H        Q       Q    E  Q    Q    E     E  E  H        Q     
----------------------|-----------------------|----------------------|
----------------------|----------0---------0--|--L-----0-------------|
--L-----2-------------|-------0-------0-------|-----0----------------|
-----0----------------|--2--------------------|----------------------|
----------------------|-----------------------|----------------------|
----------------------|-----------------------|----------------------|


  Q    E  Q    Q    E     E  E  H        Q       Q    E  Q    Q    E   
-----------------------|----------------------|----------0------------|
-----------------------|----------------------|---------------1-------|
----------0---------0--|--L-----0-------------|-------0---------------|
-----------------------|----------------------|--0--------------------|
--0----3-------3-------|-----3----------------|-----------------------|
-----------------------|----------------------|-----------------------|


  ^                   
  W                   
--2-----------------||
--3-----------------||
--2----------------*||
--0----------------*||
--0-----------------||
--------------------||




Duration Legend
---------------
W - whole
H - half
Q - quarter
E - 8th
S - 16th
T - 32nd
X - 64th
. - note dotted
|-n-|  - n-tuplets


Tablature Legend
----------------
L - tied note
x - dead note
g - grace note
(n) - ghost note
> - accentuded note
NH - natural harmonic
AH - artificial harmonic
TH - tapped harmonic
SH - semi harmonic
PH - pitch harmonic
h - hammer on
p - pull off
b - bend
br - bendRelease
pb - preBend
pbr - preBendRelease
brb - bendReleaseBend
\n/ - tremolo bar dip
\n - tremolo bar dive
-/n - tremolo bar Release up
/n\ - tremolo bar inverted dip
/n - tremolo bar return
-\n - tremolo bar Release down
S - shift slide
s - legato slide
/ -  slide into from below or out of upwards
\ -  slide into from above or out of downwards
~ - vibrato
W - wide vibrato
tr - trill
TP - tremolo picking
T - tapping
S - slap
P - pop
< - fade in
^ - brush up
v - brush down
Login or Register to remove this ad.

1 comment on Hitotoki

\\(@[email protected])//

i played this a long time ago. wow. but no one ever tabbed the op theme??? anyways, great song