Walking Though the Empty Age (Texhnolyze) Guitar Tab

Submitted: May 11, 2013 by hslesperance

5
Average: 5 (1 vote)
Download | Listen
Game: Texhnolyze
Composer(s): Keishi Urata, Hajime Mizoguchi
Style: Arrangement, Fingerstyle, Transcription

AutoScroll: Slow | Medium | Fast
Walking Through the Empty Age
Texhnolyze
Composed by Hajime Mizoguchi
Tabbed by hslesperance
5/11/13

This song plays during the tragic, yet beautiful end of Texhnolyze. There are two versions.
The first version is mostly a transcription of the original guitar with some of the bass notes.
The second version uses the vocal melody to play solo. Check the zip file for the midi.
This song also has great lyrics which are posted below at the end.



Standard Tuning

  E S E S E +H       E S E E S +Q.   S S   E S E E E. +Q   S S   E S E S E H
|-1-------1-(1)----|-1-------1-(1)-------|-1-------1--(1)------|-1-------1------|
|-----1------------|-----1---------------|-----1---------------|-----1-----1----|
|---0---0----------|---3---3---------3---|---0---0-------------|-------3--------|
|-3----------------|-0-----------------0-|-3-------------------|---3------------|
|------------------|---------------------|-------------------0-|-1--------------|
|------------------|---------------------|-----------------3---|----------------|
  W                  W                     W                     W


  E S E. E Q  Q    E S E S Q.   Q    E E E S E S E +Q     E S S +Q   E S S +Q
|-1--------1-----|-1-------1-------|-1-------1----------|-1----------1----------|
|-----1-------1--|-----1-----------|-----1-----1--------|-----1-(1)------1-(1)--|
|---0----0-------|---3---3------3--|---0---0-----0-(0)--|-----------------------|
|-3--------------|-0---------------|-3------------------|---3----------3--------|
|----------------|-----------------|--------------------|-1---------------------|
|----------------|-----------------|--------------------|-----------------------|
  W                W                 W                    W


  E S E. E H      E S E. S S E. S Q    E S E E H    S   E S E. E E. S +Q
|-1--------1----|-1---1------1-------|-1-------1------|-1--------1-----------|
|-----1---------|--------1------1----|-----1----------|-----1----------------|
|---0----0------|---3------3------3--|---0---0--------|--------3-------------|
|-3-------------|-0------------------|-3--------------|---3---------3-(3)----|
|---------------|--------------------|--------------0-|-1--------------------|
|---------------|--------------------|----------------|----------------------|
  W               W                    W                W


  E S E. E +H       E S E. E +Q   Q    E S E. E Q  Q    E S E S E +Q   Q
|-1---------------|-1-------------1--|-1--------1-----|-1-------1-(1)--1--|
|-----1-----------|-----1------------|-----1----------|-----1-------------|
|---0----0-(0)----|---3----3-(3)-----|---0----0----0--|-------------------|
|-3---------------|-0----------------|-3--------------|---3---3-----------|
|-----------------|------------------|----------------|-1-----------------|
|-----------------|------------------|----------------|-------------------|
  W                 W                  W                W


  E S E. E +H       E S E. E +Q   Q    S S S E. S S H      E S E S E +E. E E.
|-1---------------|-1-------------1--|-1---1--------1----|-1-------1-(1)--------|
|-----1-----------|-----1---------1--|-------1----1------|-----1---------1------|
|---0----0-(0)----|---3----3-(3)--3--|---0------0--------|-----------------3----|
|-3---------------|-0----------------|-3-----------------|---3---3--------------|
|-----------------|------------------|-------------------|-1--------------------|
|-----------------|------------------|-------------------|----------------------|
  W                 W                  W                   W


  E S S S S S S E S S S S S S   E S S +Q   S S S S E E   E. E. E S S S S E E   E S E S S S E. S Q
|-1-------1-------0-----0-----|-1------------------0---|-1-------0-----------|-----1-------1-------|
|-1-1---1---1-------1-----1---|-1---1-(1)--------3-----|-1--1--------1h3-1---|---------3--------3--|
|-3---3-------3-------0-----0-|-3-3------------0-----0-|-3-----3---3-------0-|-------3---3----3----|
|-3---------------------------|-3------------2---------|-3-------------------|---3-----------------|
|-----------------------------|------------3-----------|---------------------|-1-------------------|
|-----------------------------|------------------------|---------------------|---------------------|
                                                                               W


  E S E S S S S S S S Q    S S S S Q  S S S S E E   E S S +Q   S S S S Q    E  S S S S S E. E Q
|-----1---------0---0----|-1-1---1----------0---0-|-1----------0-0---0----|--------1-----------------|
|-------1---1-----1---1--|-1---1---1------3---3---|-1-3-1-(1)--1---1---1--|--------------3-----------|
|---3-----3--------------|-3----------------------|-3----------0----------|------2-----3----2--------|
|-0-----------2----------|-3------------2---------|-3----------2----------|----3-----3---------------|
|------------------------|------------3-----------|-----------------------|-1------------------------|
|------------------------|------------------------|-----------------------|-------------------6-8s3--|
  H           H                                                             H.                S E S


  E S E S E. +E  S S E.   E. E S E +Q   Q    E S E S E +H       E S E S E E. S S E.
|-1-------1--(1)--------|-1------1-(1)--1--|-1-------1-(1)----|-1---------1----------|
|-----1------------1----|----1-------------|-----1------------|-----1-1------1---1---|
|---0---0--------0---0--|------3-----------|---0---0----------|---------3------3-----|
|-3---------------------|-0----------------|-3----------------|---3------------------|
|-----------------------|------------------|------------------|-1--------------------|
|-1---------------------|------------------|------------------|----------------------|
  W                       W                  W                  W


  E S E. E +H       H    S S E Q    S S S E    S E S E S E S S   E S E S S S H
|-1---------------|-1------1------|-1------------1-------------|-------------1----|
|-----1-----------|------1-----1--|---1---1----------1---1-----|-----1-----1------|
|---0----0-(0)----|----------3----|-----3----------------------|-------3----------|
|-3---------------|-0-------------|-3----------3---3---3-------|---3-----3--------|
|-----------------|---------------|--------------------------0-|-1----------------|
|-----------------|---------------|------------------------3---|------------------|
  W                 W               Q       H.                   W


  H    H      Q   H.        H    H      W
|-----------|-------------|-----------|------|
|-5----6----|-------------|-5----6----|------|
|-5----5----|-5--(5)------|-5----5----|-5----|
|-5----8----|-5h==7-------|-5----8----|-7----|
|-----------|-8--(8)------|-----------|-8----|
|-----------|-------------|-----------|------|


  H    H      W          H    H      +W
|-----------|----------|-----------|--------|
|-5----6----|----------|-5----6----|-(6)----|
|-5----5----|-5--------|-5----5----|-(5)----|
|-5----8----|-7--------|-5----8----|-(8)----|
|-----------|-8--------|------8----|-(8)----|
|-----------|----------|-----------|--------|


  E. S S E. E S S S S E   E S S S S S S S S S S S S E   S S E S E. E S S S S E   S S S S S S S S E. S +Q
|-1-------------0---0---|-1-----1-------------0-------|-----1--------0---------|-------1-----1------1-(1)--|
|----1---1----1---1---1-|-1---1---1---1-----3-----3---|-------1--------1s3s1---|---------1h3-----3---------|
|------3----------------|-3-3-------3-----------0---0-|---3-----3------------0-|-----3---------2-----------|
|-0---------2-----------|-3---------------2-----------|-0----------2-----------|---3-----------------------|
|-----------------------|---------------3-------------|------------------------|-1-------------------------|
|-----------------------|-----------------------------|------------------------|---------------------------|
  H         H                                           H          H             W


  E S S Q  S S E E E   E S S S E. S S S S Q     H     Q  Q    E S E S Q  S S Q
|-1-----1------0-----|-1---1---1--------0----|-^1----^0-----|-1-------1------1----|
|-1---1------1---1---|-1-1---1--------3------|-^1----^1-----|-----3------3--------|
|-3-3--------------0-|-3------------------0--|-^3----^0--0--|-------3------2------|
|-3--------2---------|-3------------2--------|-^3----^2-----|---3-----------------|
|--------------------|-----------------------|--------------|-1-------------------|
|--------------------|------------0----------|--------------|---------------------|
                                                              W


  E. E S E S E S +Q     Q.   S S +H       E S E. E H      Q.   S S E S S Q
|-1------1-----1-(1)--|-1----1----------|--------1------|------1-3s5-3-1----|
|----1----------------|-1---------------|---1-----------|-------------------|
|------2---2-2--------|-3------3-(3)----|-0---3----3----|-2--------------2--|
|-3-------------------|-3---------------|---------------|-------------------|
|---------------------|-----------------|---------------|-------------------|
|---------------------|-----------------|---------------|-------------------|
  W


  E S E S S S S S S S Q    S. S. S. S. S S S S S S S S S S   Q.   S S H      E. S E E S S S S S E.
|-----1-------1-------1--|-------------1---------1---------|----------1----|-1------1-------1--------|
|---------1-------1------|-------------------1-----1---1---|--------1------|-1--------1---1---1------|
|---2---2---2---2---2----|----0--3--3----3-3---3-----3---3-|------3--------|-2--2-2-----2-------2----|
|-0----------------------|---------------------------------|---------------|-3-----------------------|
|------------------------|---------------------------------|-3-------------|-------------------------|
|------------------------|-3-------------------------------|---------------|-------------------------|
  W                        W                                 W


  E. S E E S S S S S S S S   S S S S Q  +S  E. Q    Q  S S E S E. S E.
|-1------1-1-----1---------|-------1--------------|--------------------|
|-1----------1-----1-----1-|---1---------------1--|--------------------|
|-3--3-3-------3-----3-3---|-----3---3--(3)-3-----|------0-2-0-2--0-2--|
|-3------------------------|----------------------|--------------------|
|--------------------------|----------------------|--------------------|
|--------------------------|-3--------------------|-1------------------|
                             W                      W


  E. E S S E. S S S S E   S S S E. S E. S E. +E    E    S E     S E H      W
|----1-----1----1---1-1-|-------1----1----1--(1)-|--------1---------1----|------|
|------1------1---1-----|------------------------|--------------1--------|------|
|--------2--------------|---0-3----3----3--------|------3---------3------|------|
|-0---------------------|------------------------|-----------------------|------|
|-----------------------|------------------------|-1h3------(3)----------|------|
|-----------------------|-3----------------------|-----------------------|------|
  W                       W                        S E.     +H.


  E S E S S +Q   S S S E   E S E S S E S E +Q     E S E S Q  S S E S S   E S E E S E. S Q
|-1-------1-(1)----1-----|-1-------1------------|-1-------1------1-----|-----1----------1--|
|-----1--------------1---|-----1-----1----------|-----1--------1---1---|-----3-1-----------|
|---0---0--------------0-|---3---3-----3--------|---0---0----0---------|-----3---3----3----|
|-3--------------3-------|-0-------------0-(0)--|-3--------------------|---3-------3-------|
|------------------------|----------------------|--------------------0-|-1-----------------|
|------------------------|----------------------|----------------------|-------------------|
  W                        W                      W                      W

                                               H.=H
  E S E S S +Q   S E E   E. E S S E S Q  S S   E. E S E E E S S S S    W
|-1-------1-(1)--------|-1--------1----------|-1------1-----1-------|-^1----*|
|-----1------------1---|------1-----1--------|----1-----1-----1-----|-^1----*|
|---0---0--------0---0-|----3---3-----3--3---|------0-----0-----0---|-^3----*|
|-3--------------------|-0-----------------0-|-3--------------------|-^3----*|
|----------------------|---------------------|--------------------0-|-^1----*|
|----------------------|---------------------|----------------------|-------*|
  W                      W                     W



Solo Version

  E S E S E +H       E S E E S +Q.   S S   E S E E E. +Q   S S   E S E S E H
|-1-------1-(1)----|-1-------1-(1)-------|-1-------1--(1)------|-1-------1------|
|-----1------------|-----1---------------|-----1---------------|-----1-----1----|
|---0---0----------|---3---3---------3---|---0---0-------------|-------3--------|
|-3----------------|-0-----------------0-|-3-------------------|---3------------|
|------------------|---------------------|-------------------0-|-1--------------|
|------------------|---------------------|-----------------3---|----------------|
  W                  W                     W                     W


  E S E S S S Q  E. S   S E E. Q.   Q    E E E S S S E S S E S   +E  Q  Q  S S +Q
|-------5-5-5-5-----5-|-6-5-5----------|---------5-5-5-5-5-6-5-|-(5)-8--------------|
|-6-------------------|--------6-------|-6-----8---------------|--------6-----------|
|-----5----------5----|----------------|-----5-----------------|-------------5-(5)--|
|---5-----------------|-------------8--|---5-------------------|--------------------|
|-8-------------------|-5--------------|-8---------------------|-----------8--------|
|---------------------|----------------|-----------------------|--6-----------------|
  W                     W                W                        W

                                                     |-3-|
  E S E S S S E E E E   +E  S S +E. Q  S Q    E S E. E E E E. E.   S E E. E E. S +Q
|-------5-5-5-5-5-6-5-|-(5)---5-(5)---------|--------8-8-8-5--5--|-6h8-----------------|
|-6-------------------|-------------6-------|-6------------------|-----6----6----------|
|-----5---------------|----------------5----|-----5--------------|---------------------|
|---5-----------------|-----8------------8--|---5----------------|--------8------------|
|-8-------------------|--5------------------|-8------------------|-------------8-(8)---|
|---------------------|---------------------|--------------------|-6-------------------|
  W                      W                    W                    W

         |-3-|  |-3--|
  E S E. E E E. E E. E.   E S E S E. E. Q    +E  S E S S E. E E E   E. E. E +Q   Q
|--------5-5-5--5-5--5--|-5----------------|---------5-5-5--5-5-6-|-5--8--------------|
|-6---------------------|---------6--6--6--|-(6)------------------|-------6-(6)--6----|
|-----5-----------------|-----5------------|-------5--------------|-------------------|
|---5-------------------|---8---8----------|-----5----------------|-------------------|
|-8---------------------|-5----------------|--8-------------------|-------------------|
|-----------------------|------------------|----------------------|-6-----------------|
  W                       W                   W                     W


  E S E. Q.   Q     E  S E. E S Q  S S S   S E S S S S E S E E. S   E. E. E +E. E E.
|--------8----5--|-(5)------8------------|---5-----5-5-5-5-5-5----|----5----------------|
|-6--------------|--6---------6-6----6-8-|-8----------------------|-------6-(6)---------|
|-----5----------|-------5---------------|-------5----------------|-------------5-------|
|---5------------|-----8-----------------|-----5------------------|---------------8-----|
|-8--------------|--5--------------------|-8----------------------|---------------------|
|----------------|-----------------------|------------------------|-6-------------------|
  W                 W                      W                        W


  Q  S S S S S Q  E S    S  E. S  E. H      Q  E S S S S +E.  E.    +E  S  H    S  Q
|-----------------8-8-|-------------------|----------------------|-----------------------|
|------6-5-6-6h8------|-10h11--8h10--8----|------5-6-6h8-(8)-----|------8h10-------------|
|---------------------|-------------------|----------------------|-----------------7-----|
|---------------------|-------------------|------------------10--|-(10)---------8--------|
|-5----------7--------|--8----------------|-5--------7-----------|-----------------------|
|---------------------|--------------8----|----------------------|---6------------(6)-6--|
  H          H           H           H      H        H               H.           +E  E


  Q  S S S S S S +Q    E    S  E. S  E. S S +Q.     Q  E S S Q.    E    +E  S  H    S Q
|------------------------|------------------------|------------------|------------------------|
|------6-5-6-6h8-(8)-----|-10h11--8h10--6h8-(8)---|------5-6-8-------|------8h10--------------|
|------------------------|------------------------|------------------|------------------------|
|---------------------10-|------------------------|---------------10-|-(10)-------------------|
|-5----------7-----------|--8---------------------|-5--------7-------|------------------------|
|------------------------|--------------8---------|------------------|---6------------6-8s3---|
  H          H              H           H           H        H           H.           S E S

                    |-3-|
  E S E S S +E.   E E E E   S E E. E S S +Q    S S   S.S +Q   S E. E S S. S   +S  Q  Q.   +S  S E.
|-1-------1-(1)---5-5-5-5-|-5h6-5--8-------------3-|-3h5-(5)--5-5----5-6--5-|-(5)-5-----------------|
|-----1-------------------|----------6-6-(6)---6---|------------------------|--------6----(6)-------|
|---0---0-----------------|------------------------|------------------------|-------------------5---|
|-3-------------3---------|-0----------------0-----|-3----------------------|-----------------8-----|
|-------------------------|------------------------|------------------------|-----------------------|
|-1-----------------------|------------------------|------------------------|--6--------------------|
  H             H           H.               Q       W                         W


  E S E. E E E E E   E E E. S +Q.   E   E  Q.   Q.    E   E. E. S S H
|----------5-5-5-5-|-6-5-8------------|---------8----10-|-8--------------|
|-6----------------|--------6-(6)---6-|-8-10------------|----6------6----|
|-----5------------|------------------|-----------------|---------5------|
|---5----5---------|-0----------------|-----------------|-8--------------|
|-8----------------|------------------|-8---------------|-------8--------|
|------------------|------------------|-----------------|----------------|
  W                  W                  W                 Q.    E   H


  H    H      Q   H.        H    H      W
|-----------|-------------|-----------|------|
|-5----6----|-------------|-5----6----|------|
|-5----5----|-5--(5)------|-5----5----|-5----|
|-5----8----|-5h==7-------|-5----8----|-7----|
|-----------|-8--(8)------|-----------|-8----|
|-----------|-------------|-----------|------|


  H    H      W          H    H      +W
|-----------|----------|-----------|--------|
|-5----6----|----------|-5----6----|-(6)----|
|-5----5----|-5--------|-5----5----|-(5)----|
|-5----8----|-7--------|-5----8----|-(8)----|
|-----------|-8--------|------8----|-(8)----|
|-----------|----------|-----------|--------|


  E. S S S S S S S +Q   S S   S E. Q  H      S S E S S S S Q.    E   S  S  +H        Q.
|--------------6h8-(8)------|-5h6--5-------|-----------------------|-------------------------|
|-6------6-5-6----------8-8-|---------8----|-----6---6-5-6-8-------|-8h10-(10)---------------|
|----5----------------------|--------------|-------5---------------|-------------------------|
|------8--------------------|--------------|---8----------------10-|-------------------------|
|-5------------7------------|-8------------|-5-------------7-------|-------------------------|
|---------------------------|---------8----|-----------------------|-6-----------(6)-6--6s8--|
  H            H              H       H      H             H         H           +E  S  S Q


  E S S S S S S Q   E  E    S  E. S  E. H      Q.   S S Q.   E   +E  H    S S Q
|------------------------|-------------------|---------------8-|-(8)-5------------|
|-6-----6-6-5-6-8--------|-10h11--8h10--8----|------5-6-8------|--------------6---|
|-5---5------------------|-------------------|-----------------|----------7-------|
|-8-8--------------10-10-|-------------------|-----------------|------------7-----|
|-8-------------7--------|--8----------------|-5--------7------|------------------|
|------------------------|--------------8----|-----------------|--6---------------|
  H             H           H           H      H        H         W

                                        |-3-|            |-3-|
  E. E S E Q  E E   E S E. S S +H       E E E S S +E. E. E E E   S E S S E S H
|-1------1-1--1-1-|-0-0h1--1----------|-1-1-0-0h1-(1)----1-1-1h|=3---5h6-5-3h5----|
|----1------------|-------------------|------------------------|---6--------------|
|------2----------|----------3-(3)----|-0----------------------|------------------|
|-3---------------|-0-----------------|------------------------|-3----------------|
|-----------------|-------------------|------------------------|------------------|
|-----------------|-------------------|------------------------|------------------|
  W                 W                   W                        W


  H    Q  E E   E. S E S S +H       Q.   S E. S S +Q     H    Q  +S  E.
|-------------|-------------------|------0-1--1h3-(3)--|------1--(1)-1----|
|------6--6-6-|-6--6p5-5h6-(6)----|--------------------|------------------|
|-------------|-------------------|--------------------|------------------|
|-0-----------|-------------------|--------------------|-3----------------|
|-------------|-------------------|-3------------------|------------------|
|-------------|-3-----------------|--------------------|------------------|
  W             W                   W                    W


  S E S S +Q.   E. E   S E S S +Q   E. S. S. S   +S  S. S S. E S H
|--------------------|-----------------------3-|-(3)----5h6--5-3h5----|
|-6-5-5h6-(6)------6-|-6-5-5h6-(6)-----6--6----|-----6----------------|
|--------------------|-------------------------|----------------------|
|-0------------------|-------------------------|--3-------------------|
|--------------------|-------------------------|----------------------|
|--------------------|-3-----------------------|----------------------|
  W                    W                          W


  Q.   E E S S E E   Q.   S E S +Q.     Q.   E E Q.     +H     H
|------------------|------6h8---------|----------8----|-(8)---------|
|------6-6-6-6-6-6-|-6--------6-(6)---|------5-6------|-------------|
|------------------|-0----------------|---------------|-------------|
|-0----------------|------------------|-8-------------|-------------|
|------------------|------------------|---------------|-------------|
|------------------|------------------|---------------|-------------|
  W                  W                  W


  E S E S S +Q   S S S E   E S E S S E S E +Q     E S E S Q  S S E S S   E S E E S E. S Q
|-1-------1-(1)----1-----|-1-------1------------|-1-------1------1-----|-----1----------1--|
|-----1--------------1---|-----1-----1----------|-----1--------1---1---|-----3-1-----------|
|---0---0--------------0-|---3---3-----3--------|---0---0----0---------|-----3---3----3----|
|-3--------------3-------|-0-------------0-(0)--|-3--------------------|---3-------3-------|
|------------------------|----------------------|--------------------0-|-1-----------------|
|------------------------|----------------------|----------------------|-------------------|
  W                        W                      W                      W

                                               H.=H
  E S E S S +Q   S E E   E. E S S E S Q  S S   E. E S E E E S S S S    W
|-1-------1-(1)--------|-1--------1----------|-1------1-----1-------|-^1----*|
|-----1------------1---|------1-----1--------|----1-----1-----1-----|-^1----*|
|---0---0--------0---0-|----3---3-----3--3---|------0-----0-----0---|-^3----*|
|-3--------------------|-0-----------------0-|-3--------------------|-^3----*|
|----------------------|---------------------|--------------------0-|-^1----*|
|----------------------|---------------------|----------------------|-------*|
  W                      W                     W

h - hammer on
p - pull off
s - slide

W - whole
H - half
Q - quarter
E - 8th
S - 16th
+ - note tied to previous
. - note dotted

Irregular groupings are notated above the duration line
Low melody durations appear below the staff




Lyrics - Chris Mosdell

I dip my hands into this darkness
This is the ink of all our lifetimes
Here in this world of utter silence
Let the stones speak to me

Tattooed here across my skin "I WILL LIVE"
Like a rose that grows from the wreckage
Blood red, beautiful-
As the storms all around me are now breathless

Is this the end of the Raging Road
Through the tangled mind?
Is this the end of starlit skies?
Are we walking blind?

Let me set out through this morning
Open arms to greet the empty ages
Reborn, see how I'm circling
I'm a sailor-eternal

Is this the end of the Wasted Way?
Is this the death of time?
Is this the end of blue psychic seas?
Are we sailing blind?

O look down on me
Watch over me as I walk across this world
O hold me in hidden hands
Let us go

O look down on me
Watch over me as I walk across this world
Teach me how to take my first footsteps to the
end
Login or Register to remove this ad.

5 comments on Walking Though the Empty Age

Awsome. Hope there is coming

5

Awsome. Hope there is coming more from Texhnolyze!

There are tabs for Tsuki no

There are tabs for Tsuki no Uta on ultimate guitar, so I wasn't going to bother with that. Were there any other songs you wanted?

hslesperance saidThere are

hslesperance said

There are tabs for Tsuki no Uta on ultimate guitar, so I wasn't going to bother with that. Were there any other songs you wanted?

Yes, but the Tsuki no Uta tab is really not well done and could be extended a lot.

It would be great if you could tab some of this Texhnolyze ost`s:

http://www.youtube.com/watch?v=LgoMU8WQguU
http://www.youtube.com/watch?v=vGuQ7pUwcVE
http://www.youtube.com/watch?v=rg8KnNmeKCI
http://www.youtube.com/watch?v=03N-DQnlhY4

PS: Man, those feelings , when I play this tab and remember on the final scene of Texhnolyze...

There are two versions on

There are two versions on ultimate guitar. The second one seems good

http://tabs.ultimate-guitar.com/g/gackt/tsuki_no_uta_ver2_tab.htm

I might try Blue Darkness and A Far Away Lightning. Those other two might be too difficult.

I know what you mean. I found a few piano sheets online and playing the song where Shinji is in the Class building (Gentle Footsteps) made me teary eyed. Hajime Mizoguchi writes such evocative piano chords.

Man, I`m not that sort of

5

Man, I`m not that sort of sensitive guy, but when I hear the Ost`s of Texhnolyze, especially the ost you posted xD , it`s like I`m somehow in Lux and for some reason i get this indescribably feeling of real peace, and not "human" peace, if you know what I mean.

Sorry for my bad english ;)