A Far Away Lightning (Texhnolyze) Guitar Tab

Submitted: May 17, 2013 by hslesperance (Last updated: May 21, 2013)

5
Average: 5 (1 vote)
Download | Listen
Game: Texhnolyze
Composer(s): Keishi Urata, Hajime Mizoguchi
Style: 2 or more instruments, Transcription

AutoScroll: Slow | Medium | Fast
A Far Away Lightning
Texhnolyze
Composed by Hajime Mizoguchi
Tabbed by hslesperance
5/17/13

The fermatas do not show up on the midi, so check out the original song for the correct timing.

Guitar 1 - Standard Tuning
Guitar 2 - Drop D Tuning (DADGBe)




Guitar 1

  W          W          W          W
|----------|----------|----------|------|
|----------|----------|----------|------|
|----------|----------|----------|------|
|----------|----------|----------|------|
|----------|----------|----------|------|
|----------|----------|----------|------|


  H    +E  Q  E   Q.   +S  T T H      H    Q  E. S   H.      Q
|---------------|-------------------|--------------|-------------|
|-3----(3)----3-|-3----(3)----------|--------------|-------------|
|---------------|----------5-3-2----|-5-------5--3-|-2-----------|
|----------5----|-------------------|------4-------|-------------|
|---------------|-------------------|--------------|-------------|
|---------------|-------------------|--------------|-------------|


  H    Q.   E   Q.   +S  T T H      H    +E  E E E   H.      Q
|-------------|-------------------|--------------5-|-2-----------|
|-3---------3-|-3----(3)----------|----------3-4---|-------------|
|-------------|----------5-3-2----|-5----(5)-------|-------------|
|------5------|-------------------|----------------|-------------|
|-------------|-------------------|----------------|-------------|
|-------------|-------------------|----------------|-------------|


    H    +Q   E E   H    H      H    +Q   E E   H.      Q
||--3----(3)------|-----------|-3----(3)--5-6-|-5-----------||
||o-----------6-4-|-3---------|---------------|------------o||
||----------------|------5----|---------------|-------------||
||----------------|-----------|---------------|-------------||
||o---------------|-----------|---------------|------------o||
||----------------|-----------|---------------|-------------||


  Q.   Q.   S S E   E Q.   E. E. S S   E Q.   E S E S S S   +H     H
|-----------------|------------------|--------------------|-------------|
|-----------------|------------------|--------------------|-------------|
|------3----5-5-3-|-3-2-------2--3-3-|-5-5------5-3-3-2---|-------------|
|-----------------|------------------|------------------4-|-(4)---------|
|-----------------|------------------|--------------------|-------------|
|-----------------|------------------|--------------------|-------------|


  Q  E Q  S S E E   S S E S S Q.   Q    Q  H.        Q  Q  H
|-----------5-3-3-|-3-----------------|------------|------------*|
|---------3-------|---3-3-------------|------------|------------*|
|------3----------|-------5-3-2-------|------------|------------*|
|-----------------|-------------------|----4-------|------------*|
|----5------------|-------------------|------------|-5--3--0----*|
|-----------------|-------------------|------------|------------*|




Guitar 2

  S S S S S S S S +H       S S S S S S S S +H
|-----6---6---6----------|-----5---5---5----------|
|------------------------|------------------------|
|---7---7---7---7-(7)----|---7---7---7---7-(7)----|
|-5----------------------|-5----------------------|
|------------------------|------------------------|
|------------------------|------------------------|


  S S S S S S S S +H       S S S S S S S S +H
|-----8---8---8----------|-----5---5---5----------|
|------------------------|------------------------|
|---8---8---8---8-(8)----|---5---5---5---5-(5)----|
|-5----------------------|-5----------------------|
|------------------------|------------------------|
|------------------------|------------------------|


  S S S S S S S S S S S S S S S S   S S S S S S S S S S S S S S S S
|-----6---6---6-------6---6---6---|-----5---5---5-------5---5---5---|
|---------------------------------|---------------------------------|
|---7---7---7---7---7---7---7---7-|---7---7---7---7---7---7---7---7-|
|-5---------------5---------------|-5---------------5---------------|
|---------------------------------|---------------------------------|
|---------------------------------|---------------------------------|


  S S S S S S S S S S S S S S S S   S S S S S S S S S S S S S S S S
|-----8---8---8-------8---8---8---|-----5---5---5-------5---5---5---|
|---------------------------------|---------------------------------|
|---8---8---8---8---8---8---8---8-|---5---5---5---5---5---5---5---5-|
|-5---------------5---------------|-5---------------5---------------|
|---------------------------------|---------------------------------|
|---------------------------------|---------------------------------|


  S S S S S S S S S S S S S S S S   S S S S S S S S S S S S S S S S
|-----6---6---6-------6---6---6---|-----5---5---5-------5---5---5---|
|---------------------------------|---------------------------------|
|---7---7---7---7---7---7---7---7-|---7---7---7---7---7---7---7---7-|
|-5---------------5---------------|-5---------------5---------------|
|---------------------------------|---------------------------------|
|---------------------------------|---------------------------------|


  S S S S S S S S S S S S S S S S   S S S S S S S S S S S S S S S S
|-----8---8---8-------8---8---8---|-----5---5---5-------5---5---5---|
|---------------------------------|---------------------------------|
|---8---8---8---8---8---8---8---8-|---5---5---5---5---5---5---5---5-|
|-5---------------5---------------|-5---------------5---------------|
|---------------------------------|---------------------------------|
|---------------------------------|---------------------------------|


    S S S S S S S S S S S S S S S S   S S S S S S S S S S S S S S S S
||----------------------------------|---------------------------------|
||o---------------------------------|---------------------------------|
||------0---0---0-------0---0---0---|-----2---2---2-------2---2---2---|
||----------------------------------|---------------------------------|
||o---1---1---1---1---1---1---1---1-|---3---3---3---3---3---3---3---3-|
||--1---------------1---------------|-1---------------1---------------|


  S S S S S S S S S S S S S S S S   S S S S S S S S S S S S S S S S
|---------------------------------|----------------------------------||
|---------------------------------|---------------------------------o||
|-----0---0---0-------0---0---0---|----------------------------------||
|---------------------------------|-----3---3---3-------3---3---3----||
|---1---1---1---1---1---1---1---1-|---3---3---3---3---3---3---3---3-o||
|-1---------------1---------------|-1---------------1----------------||


  S S S S S S S S +H       S S S S S S S S +H
|------------------------|------------------------|
|------------------------|------------------------|
|------------------------|------------------------|
|-----8---8---8----------|-----7---7---7----------|
|---5---5---5---5-(5)----|---5---5---5---5-(5)----|
|-5----------------------|-5----------------------|


  S S S S S S S S +H       S S S S S S S S +H
|------------------------|------------------------|
|------------------------|------------------------|
|-----5---5---5----------|-----2---2---2----------|
|------------------------|------------------------|
|---6---6---6---6-(6)----|---3---3---3---3-(3)----|
|-5----------------------|-5----------------------|


  S S S S S S S S +H       S S S S S S S S +H
|-----6---6---6----------|-----5---5---5----------|
|------------------------|------------------------|
|---7---7---7---7-(7)----|---7---7---7---7-(7)----|
|-5----------------------|-5----------------------|
|------------------------|------------------------|
|------------------------|------------------------|


  S S S S S S S S +H       S S S S S S S S +H
|-----8---8---8----------|-----5---5---5----------*|
|------------------------|------------------------*|
|---8---8---8---8-(8)----|---5---5---5---5-(5)----*|
|-5----------------------|------------------------*|
|------------------------|------------------------*|
|------------------------|------------------------*|

W - whole
H - half
Q - quarter
E - 8th
S - 16th
+ - note tied to previous
. - note dotted
Login or Register to remove this ad.

1 comment on A Far Away Lightning

Again awsome!Please continue

5

This is simply amazing!
Please continue on!