Theme A (Tetris (Game Boy)) Banjo Tab

Submitted: Apr 06, 2012 by anubis2591

5
Average: 5 (2 votes)
Download | Listen
Game: Tetris (Game Boy)
Composer(s): Hirokazu Tanaka
Style: Alternate picking, Transcription
Series: Tetris

AutoScroll: Slow | Medium | Fast
Tetris Theme A
Tetris (Game Boy)
Composed by Hirokazu Tanaka
Tabbed by Sean Streeter
4-4-12

d|-2-----------------2-------------2-------|
b|---0-1-3-1-0-----1---3-1-0-0-1-3---1-----|
g|-------------2-2---------------------2-2-|
d|-----------------------------------------|
g|-----------------------------------------|

d|---3-7-5-3-2---2-------------2-----------|
b|-3-----------1---3-1-0-0-1-3---1---------|
g|---------------------------------2-2-----|
d|-----------------------------------------|
g|-----------------------------------------|

x2

d|-2---------------------------------------|
b|------1----3----0----1-------------------|
g|--------------------------2----1----4----|
d|-----------------------------------------|
g|-----------------------------------------|

d|-2---------------------2-7-7-6-----------|
b|------1----3----0----1-------------------|
g|-----------------------------------------|
d|-----------------------------------------|
g|-----------------------------------------|
Login or Register to remove this ad.

6 comments on Theme A

why

why not:

d|-0-----------------0-------------0-------|
b|---0-1-3-1-0-----1---3-1-0-0-1-3---1-----|
g|-------------2-2---------------------2-2-|
d|-----------------------------------------|
g|-----------------------------------------|

d|---1-5-3-1-0---0-------------0-----------|
b|-3-----------1---3-1-0-0-1-3---1---------|
g|---------------------------------2-2-----|
d|-----------------------------------------|
g|-----------------------------------------|

x2

d|-0---------------------------------------|
b|------1----3----0----1-------------------|
g|--------------------------2----1----4----|
d|-----------------------------------------|
g|-----------------------------------------|

d|-0---------------------0-5-5-4-----------|
b|------1----3----0----1-------------------|
g|-----------------------------------------|
d|-----------------------------------------|
g|-----------------------------------------|

??

dakuww, your version makes

dakuww, your version makes sense if the first string is tuned to E, like a guitar. This is a banjo tab, where it's D, so all the notes on that string are 2 frets higher.

oh, right. I haven't noticed

oh, right. I haven't noticed it ^^

YOU SIR!! Because of you I

YOU SIR!! Because of you I started making game tabs for my banjo! thank you for this amazing tetris tab!

Why not post some of them? I

Why not post some of them? I can only find 3 songs for gaming music on the banjo.

delta emulator

do you guys heard about the new emulator called "Delta". By using this delta emulator, we can play game boy games on our iPhone devices. it's awesome right. You can get more details from here - http://deltaemulatorappios.com/