Sanctuary (Terranigma) Guitar Tab

Submitted: Apr 22, 2009 by Agahnim (Last updated: Feb 03, 2010)

5
Average: 5 (3 votes)
Download | Listen
Game: Terranigma
Composer(s): Miyoko Kobayashi, Masanori Hikichi
Style: Arrangement, Fingerstyle

AutoScroll: Slow | Medium | Fast
Sanctuary
Terranigma
Composed by: Miyoko Kobayashi, Masanori Hikichi
Arranged by: Ivo Koporcic
April 22, 2009

Tune down a half-step the 6th string (E to Eb)
Capo on 1

       E  S S E  E  S S E     E  S S E  E  E  S S    E  S S E  E  S S E   
F ||---0-------------------|--0--1---3--1--0------|--0-------------------|
C ||------1---1-----1---1--|-----0---0-----1----1-|-----0---0-----1---1--|
G#||*-----0---0-----2---2--|-----0---0-----2------|-----0---0-----2---2--|
D#||*----------------------|----------------------|----------------------|
A#||---3-------------------|--3-------------------|--3-------------------|
E ||-------------2---------|------------2---------|------------2---------|


  E  S S E  E  E  S S    E  S S E  E  S S S S    E  E  E  E  S S S S  
--0--1---3--1--0------|-----------------------|----------------------|
-----0---0-----1----1-|--3------------------1-|--3--1----------------|
-----0---0-----2------|-----2---2-----0---0---|-----2--3--2--3-----0-|
----------------------|-----3---3-----1---1---|--------0--1--1-------|
--3---------------0---|--1--------------------|--1-------------------|
------------2---------|------------0----------|-----------0----------|


  E  S S E  E  S S E     E  S S E  E  S S E     S S S E  S S S E  E   
--0-------------------|----------------------|--0---0-1--3-1---0-----|
-----0---0-----1---1--|-----0---0-----1---1--|----3---3--3---3-1--3--|
-----0---0-----2---2--|-----0---0-----2---2--|--0-----------------3--|
----------------------|------------3------3--|--------------------2--|
--3-------------------|--3-------------------|-------------3---------|
------------2---------|----------------------|-----------------------|


                                                      ^                    
  S S S S S S S S S S S S    S S S S S S S S E  E     E  S S E  E  S S E   
--------------------------|----------3---1---0-----|--5-------------------|
--1-------------------1---|--3-------------1-1--1--|--6------6--4--1---1--|
--2-2---2-2-2-2-2---2-2---|--3-3---3---3-----------|--5--5------5---------|
--3-----------1-----------|------------------------|---------------3---1--|
--------------------------|--1---------------3-----|--0---------0---------|
--------------------------|------------------------|----------------------|


  S S S S S S E  E  E     S S S S S S E  S S E     E  S S S S E  S S S S  
--6---------1-0--------|--5---------0----0------|--3--------1-0--------3-|
------6---3------3--1--|------1---1---3------7--|-----3---3------6-------|
------7----------------|------2---2---2------5--|-----3---3------5---5---|
------8----------------|------------------------|------------------------|
--------------3-----1--|------------------------|-----0---1---3----------|
--7--------------------|--2-------2---3------3--|--4-----------------4---|


             ^                                                        
  E  S S S S Q    E     E  S S E  E  S S E     E  S S E  E  S S E     
--1------------------|----------------------|-----------------------||
-----1---1---1-------|-----0---0-----1---1--|-----0---0-----1---1---||
-----2---2---2-------|-----0---0-----2---2--|-----0---0-----2---2--*||
-------------3-------|----------------------|----------------------*||
---------------------|--3-------------------|--3--------------------||
--2---------------2--|------------2---------|------------2----------||


  E  S S E  E  S S E     E  S S E  E  S S E     E  S S E  E  S S E   
--0-------------------|--0-------------------|--0------1--3------1--|
-----0---0-----1---1--|-----0---0-----1---1--|-----0---0-----1---1--|
-----0---0-----2---2--|-----0---0-----2---2--|-----0---0-----2---2--|
----------------------|----------------------|----------------------|
--3-------------------|--3-------------------|--3-------------------|
------------2---------|------------2---------|------------2------2--|


  E  S S Q    Q              
--0----------------|-------||
-----0---3----1----|-------||
-----0---0----0----|-------||
---------0---------|-------||
--------------3----|-------||
--4----------------|-------||




Duration Legend
---------------
W - whole
H - half
Q - quarter
E - 8th
S - 16th
. - note dotted

Tablature Legend
----------------
^ - brush up
v - brush down
Login or Register to remove this ad.

2 comments on Sanctuary

i like your tabs

i like your tabs

Just for clarification, it's

Just for clarification, it's more common to show the tuning of the strings as if there were no capo then just say where to put the capo. So in this song it's

Capo fret 1

e ||--
B ||--
G ||--
D ||--
A ||--
Eb||--