Ads

Sorairo Days (Tengen Toppa Gurren Lagann) Guitar Tab

Submitted: May 29, 2012 by JordanVS

5
Average: 5 (6 votes)
Download | Listen
Game: Tengen Toppa Gurren Lagann
Composer(s): Taku Iwasaki
Style: Arrangement, Fingerstyle

AutoScroll: Slow | Medium | Fast
Sorairo Days                 
Tengen Toppa Gurren Lagann
First Opening
Shoko Nakagawa
JordanVS



*Capo on 2nd fret


I included a version without the capo as a extra at the zip file.
They don't have a lot of  differences but with the capo on is a little easier.




      E  E  E  E  E  E  E  E     E  E  E  E  E  E  E  E   
E||---------------------------|--------------------------|
B||------------0--0--0--------|-----0--0-----------0--0--|
G||*-----2--2--------------2--|--2-----------2--2--------|
D||*-----2--2--2--2--2-----2--|--2--2--2-----2--2--2--2--|
A||------0-----0--0--0-----0--|--0--0--0-----0--0--0--0--|
E||---------------------------|--------------------------|


                            
                           1.
  E  E  E  E  E  E  E  E     E  E  Q    Q    Q       
--------------------------|------------------------||
-----------0--0--0--------|--------0----1----1-----||
-----2--2--------------2--|--2--2-------2----2----*||
-----2--2--2--2--2-----2--|--2--2--2----3----3----*||
-----0-----0--0--0-----0--|--0--0--0----3----3-----||
--------------------------|-------------1----1-----||
                                                       
 2.           
  E  E  Q    Q    Q       E  E  E  E  E  Q    E     E  E  E  Q.     Q     
-------------3----3----|--L--0--0--0--0--0----0--|--0--0--0--2------L----|
-----0--0----1----1----|--L----------------------|--1--1--1--3------L----|
--2----------2----2----|--L--2--2--2--2--2----2--|--0--0--0--2------L----|
--2--2--2--------------|-----0--0--0--0--0----0--|-----------0------L----|
--0--0--0----3----3----|--L----------------------|--3--3--3--------------|
-----------------------|-------------------------|-----------------------|


  W                   Q.     E  Q.     E     E  Q    E  Q    Q     
--L----------------|--0----------------0--|--L--0-----------------|
--L----------------|--1------3--3------0--|--L--0----3--3---------|
--L----------------|--2---------2------0--|--L----------4---------|
--L----------------|--3-------------------|-----------------------|
-------------------|----------------------|-----------------------|
-------------------|-------------------3--|--L-------3-------3----|


  Q.     E  Q    E  E     E  E  Q    Q    Q       Q.     E  Q    E  E   
-----------------------|-----------------------|--0-----------------0--|
--3-----------------0--|-----1--3----1---------|--1------3--3-------0--|
--4------5--5----0-----|------------------0----|--2---------2----------|
--5--------------------|-----------------------|-----------------------|
-----------------------|--0--------------------|------------3----------|
--0--------------0-----|--------3--------------|--1--------------1--3--|


                                                                          
  E  Q    E  Q.     E     Q    E  Q    E  Q       E  E  E  E  E  E  E  E   
--L--0-----------------|------------------0----|--L-----------------------|
--L--0----3--3------1--|--3----1--3----1--1----|--L-----------------------|
-------------4---------|------------------2----|--L-----------------------|
----------0------------|------------------2----|--L-----------------------|
-----------------------|------------------0----|--L--0--0--0--0--0--0--0--|
--L----------3---------|--0-------0------------|--------------------------|


  Q.     E  Q.     E     E  Q    E  Q    E  E     Q.     E  Q    E  E   
--0----------------0--|--L--0------------------|-----------------------|
--1------3--3------0--|--L--0----3--3----------|--3------1--1-------0--|
--2---------2------0--|--L--0-------0----------|--0--------------0-----|
----------------------|-------------0-------3--|--2---------2----------|
----------------------|------------------------|-----------------------|
--1---------1------3--|--L--3-------3----1-----|--0------0-------------|


  E  E  Q    Q    E  E     Q.     E  Q.     E     E  Q    E  Q.     E   
------------------------|--0----------------0--|--L--0-----------------|
-----1--3----1----------|--1------3--3------0--|--L--0----3--3------1--|
--2------------------0--|--2---------2------0--|--L--0-------4------0--|
--2---------------------|---------3------------|-----------------------|
--0-----0----0----------|----------------------|-----------------------|
------------------3-----|--1----------------3--|--L--3-------3---------|


  Q.     Q    E  E  E     E  E  E  E  E  E  E  E   
--------------------0--|--L-----------------3-----|
--3------3----2--3--2--|--L-----------1-----------|
--2------2-------2--2--|--L--------2-----2--------|
-----------------------|--------2-----------2-----|
--0-----------------0--|--L--0-----------------0--|
---------3----3--------|--------------------------|


  Q    E  E  Q    E  E     E  E  E  E  Q.     E     Q    E  Q    Q    E   
--3---------------------|--------0--1--0------3--|--3----1--0----1----0--|
--1----1--1--1-------1--|--L--3--------1---------|--1-------1----1----0--|
--2----2--2--2----2-----|--------------0---------|--2-------2----2----0--|
------------------------|------------------------|--3-------3------------|
--3---------------------|------------------------|-----------------------|
---------------------0--|-----0------------------|-----------------------|


  E  H        E  E  E     Q    E  E  Q    E  E     E  E  E  E  Q    E  E   
--L-----------------3--|--3---------------------|--------0--1--0----------|
--L--3--------L--------|--1----1--1--1-------1--|--L--3--------1----3--1--|
--L--0--------L--0-----|--2----2--2--2----2-----|--------------0----------|
-----------------------|------------------------|-------------------------|
-----------------------|--3---------------------|-------------------------|
--3-----------3--------|------------------------|-----0----------------0--|


  E  E  E  E  E  E  E  E     E  E  E  E  Q    Q     
--0-----L--1--1-----------|--L---------------------|
--------------------------|-------------------1----|
--3-----L--3--3-----------|--L---------------------|
--3-----L--3--3-----------|--L---------------------|
--1--1--1--1--1--1--1--1--|--1--1--1--1--1---------|
--------------------------|------------------------|


  Q    E  Q    Q    E     H        E  E  E  E     Q    E  Q    Q    E   
--3----1--0----1----3--|--L-----------0--0--1--|--3----0--8----7----0--|
--1-------1----1----1--|--L-----------------1--|--3-------8----8----0--|
--2-------2----2----2--|--L--------------------|--4-------7----7----0--|
----------3---------3--|-----------------3-----|-----------------------|
-----------------------|--------------3--------|-----------------------|
--1--------------------|-----------1-----------|--3-----------------3--|


  E  E  E  E  E  E  E  E     Q    E  Q    Q    E     Q    E  Q    Q    E   
--L-----------0-----1-----|--3----3--3----3----3--|-------1--0------------|
--L-----------------------|--3-------3---------1--|----------0----3----3--|
--L--------0-----0--------|--4-------4---------2--|----------1---------2--|
--------0-----------0-----|-----------------------|--------------------2--|
--------------------------|-----------------------|---------------2-------|
--L--3-----------------3--|--0-------0------------|--0-------0------------|


  E  E  E  E  E  E  E  E     E  E  E  E  Q    Q     
-----------------------0--|--L--0--0--0--0---------|
--1--1-----3-----1--------|-------------------1----|
--2--2-----------2-----3--|--L--3--3--3--3---------|
--2--2-----2-----2-----3--|--L--3--3--3--3---------|
--0--0-----0-----0-----1--|--L--1--1--1--1---------|
--------------------------|------------------------|


                                   ^                                    
  Q    E  Q    Q    E     H        E  E  E  E     Q    E  Q    Q    E   
--3----1--0----1----3--|--L-----------0--0--1--|--3----0--8----7----0--|
--1-------1----1----1--|--L--------1-----------|--3-------8----8----0--|
--2-------2----2----2--|--L--------2-----------|--4-------7----7----0--|
----------2------------|-----------2-----------|--5--------------------|
--0-------0------------|-----------0-----------|--5--------------------|
-----------------------|-----------------------|--3-----------------3--|


  E  E  E  E  Q    Q       Q    E  Q    Q    E     Q    Q    Q    Q     
--------------0----1----|--3----3--3----3----4--|--L----0----7----8----|
-----0--0--0--0----0----|--3-------3---------3--|--L---------8---------|
-----0--0--0--0----0----|----------4---------4--|--L---------9---------|
-----0--0--0--0---------|--------------------2--|--L-------------------|
------------------------|-----------------------|----------------------|
--3-----------3---------|--0--------------------|-------0--------------|


  Q.     Q    Q    E     Q.     Q.     Q       Q    E  Q    Q    E   
--7------7----5----8--|--L-------------1----|--0----1--3------------|
--5------5----5----6--|--L------3-----------|--1------------1----1--|
--5------5----5----7--|--L------3-----------|--2--------------------|
----------------------|---------3-----------|-----------------------|
--0-----------0-------|---------1-----------|-----------------------|
-------------------6--|--L------------------|--1--------------------|


  Q    Q    Q    Q       Q    E  Q    Q    E     Q    Q    Q    Q     
-----------------1----|--0----1--3------------|----------------------|
----------------------|--0------------1----3--|------------3---------|
----------------------|--0-----------------4--|-------0---------0----|
------------3---------|--------------------5--|----------------------|
-------3--------------|-----------------------|----------------------|
--1-------------------|--3-----------------3--|--3-------------------|


  E  E  E  E  E  E  E  E     E  E  E  E  E  E  E  E   
--0--------L--------------|--------------------------|
-----------0--0--0--------|-----0--0-----------0--0--|
-----2--2--------------2--|--2-----------2--2--------|
-----2--2--2--2--2-----2--|--2--2--2-----2--2--2--2--|
-----0-----0--0--0-----0--|--0--0--0-----0--0--0--0--|
--------------------------|--------------------------|


  E  E  E  E  E  E  E  E     E  E  Q    Q    Q     
--------------------------|-------------3----3----|
-----------0--0--0--------|-----0--0----1----1----|
-----2--2--------------2--|--2----------2----2----|
-----2--2--2--2--2-----2--|--2--2--2--------------|
-----0-----0--0--0-----0--|--0--0--0----3----3----|
--------------------------|-----------------------|

                                                                     
  E  E  E  E  E  Q    E     E  E  E  Q.     Q       W                 
--L--0--0--0--0--0----0--|--0--0--0--2------L----|--L----------------|
--L----------------------|--1--1--1--3------L----|--L----------------|
--L--2--2--2--2--2----2--|--0--0--0--2------L----|--L----------------|
-----0--0--0--0--0----0--|-----------0------L----|--L----------------|
--L----------------------|--3--3--3--------------|-------------------|
-------------------------|-----------------------|-------------------|


-------------------||
-------------------||
-------------------||
-------------------||
-------------------||
-------------------||




Duration Legend
---------------
W - whole
H - half
Q - quarter
E - 8th
. - note dotted


Tablature Legend
----------------
L - tied note
Login or Register to remove this ad.

2 comments on Sorairo Days

never heard the song before

5

never heard the song before but I love all your tabs, nice job man~

Best anime

5

All time favorite anime! Appreciate the tab great job!