Ads

Omae no XXX de... (Tengen Toppa Gurren Lagann) Guitar Tab

Submitted: Mar 30, 2012 by JordanVS

5
Average: 5 (6 votes)
Download | Listen
Game: Tengen Toppa Gurren Lagann
Composer(s): Taku Iwasaki
Style: Arrangement, Fingerstyle

AutoScroll: Slow | Medium | Fast
Omae no XXX de...                                 
Tengen Toppa Gurren Lagann
Taku Iwasaki


*Capo on 2nd fret



   
  E  E  E  E  E  E  E  E     E  E  E  E  E  E  E  E   
E||-----------0--------1--0--|--------0--------------1--|
B||--1-----3-----1-----1-----|--1-----1--3--1-----1-----|
G||-----0--5--0-----2--2-----|-----3--0--------2--------|
D||--2-----3-----3-----------|--3-----------3-----------|
A||--3-----------3-----------|--3-----------3-----------|
E||--------------------------|--------------------------|


  E  E  E  E  E  E  E  E     E  E  E  E  E  E  E  E   
-----------0--------1--0--|--------0--------------1--|
--1-----3-----1-----1-----|--1-----1--3--1-----1-----|
-----0--5--------2--2-----|-----3--0--------2--------|
--2-----3-----3-----------|--3-----------3-----------|
--3-----------3-----------|--3-----------3-----------|
--------------------------|--------------------------|


  E  E  E  E  E  E  E  E     E  E  E  E  E  E  E  E   
--3-----1--0--------3--5--|--3-----1--0--------------|
--0--0--------1--1--------|--1--------1--3-----------|
--------------2-----------|--------2-----4--------4--|
--2-----------3-----------|-----2--------5-----5-----|
--------------------------|--0--------------5--------|
--------------------------|--------------3-----------|


  E  E  E  E  E  E  E  E     E  E  E  E  E  E  E  E   
--3-----1--0--------0-----|--------------------------|
--0--0--------1--1--1--3--|--1-----3-----3--3-----0--|
--------------2-----------|--2--2--4--5--5-----2-----|
--2-----------3-----------|--0-----------5-----------|
--------------------------|--------------------------|
--------------------------|--------------------------|


  E  E  E  E  E  E  E  E     E  E  E  E  E  E  E  E   
-----------0--------1--0--|--------0--------------1--|
--1-----3-----1-----1-----|--1-----1--3--1-----1-----|
--0--0--5--0--2--2--2-----|--3--3--0-----2--2--0-----|
--2-----3-----3-----------|--3-----------3--------3--|
--3-----------3-----------|--3-----------3-----------|
--------------------------|--------------------------|


  E  E  E  E  E  E  E  E     E  E  E  E  E  E  E  E     E  H.           E    
-----------0--------1--0--|--------0-----------------|-----0------------L--||
--1-----3-----1-----1-----|--1--------3--1-----------|--1------------------||
--0--0--5-----2--2--2-----|--2-----0-----0--------0--|---------------------||
--2-----3-----3-----------|--3--3--------2-----0-----|---------------------||
--3-----------3-----------|--------------------------|---------------------||
--------------------------|--------3--------3--------|---------------------||




Duration Legend
---------------
W - whole
H - half
Q - quarter
E - 8th
. - note dotted



Tablature Legend
----------------
L - tied note
^ - brush up
v - brush down
Login or Register to remove this ad.

5 comments on Omae no XXX de...

As expected from someone of JordanVS's calibur!

Sure the tab may be slightly difficult for a beginner to learn, but in the heart, it's perfect! When you lead it flawlessly note by note, I will follow each and every step - and with your teachings, my resolve, and this guitar, we will struggle and kick, and get just a little bit further, I will evolve beyond the guitarist I was one minute ago! Music is your soul! And with our souls, we'll rip through the void of life and sound! WHO THE HELL DO YOU THINK I AM?

Great tab by the way.

Listen!

Don’t believe in me!
Don’t believe in yourself.
Believe in the guitar, that believes in you...

Thanks =D

>forgot to rate

5

5-star.

Lagann Impacto!

5

This tab is amazing thank you JordanVS ! 5 Stars Still sounds good in standard tuning. ;)

So good ;_;

5

On that day...we lost something that could never be replaced.