Ads

Opening Theme (Tenchi Muyo) Bass Tab

Submitted: Mar 07, 2014 by auriplane

0
Download | Listen
Game: Tenchi Muyo
Composer(s): Seikou Nagaoka
Style: Fingerstyle, Transcription

This song is also called 魎皇鬼のテーマ

AutoScroll: Slow | Medium | Fast
         Tenchi Muyō! Ryōōki -- Ryōōki's Theme (Opening Theme)
                     Composed by Seikou Nagaoka

              Tabbed by auriplane ([email protected])




Five-string bass, standard tuning.

        Intro

G |--------------------------------|--------------------------------|
D |--------------------------------|--------------------------------|
A |5-------------------------------|--------------------------------|
E |--------------------5-----------|--------------------------------|
B |--------------------------------|3-----------3-------3---3---6---|

        Part A

G |--------------------------------|--------------------------------| \
D |----5-5---5-3-------------------|--------------------------------|  \
A |--------------5---3-5-----------|------------------8-----8-------|   |
E |3---------------3-----------6-8-|------8-------------8-----8-----|   |
B |-----------------------/8-------|6-----------6-6-------6-----6---|   |
                                                                        | x2
                                                                        |
G |--------------------------------|--------------------------------|   |
D |--------------------------------|------------------7-----7-------|   |
A |----6-6---6---6-----------------|--------5-5-0-5-----5-----5-----|   |
E |------------6-------3---6-3-----|----------------------5-----5---|  /
B |4-----------------4---4-----4---|3---3---------------------------| /

        Part B

G |--------------------------------|--------------------------------|
D |--------------------------------|--------------------------------|
A |--------------------------------|--------------------------------|
E |--------------------------------|--------------------------------|
B |8-8-6-8-----8-8-6-8-------------|--------------------------------|


G |--------------------------------|----------3-2-------------------|
D |--------------------------------|--------------3-----------------|
A |--------------------------------|----------------3---------------|
E |--------------------------------|------------------------1---3---|
B |8-8-6-8-----8-8-6-8-------------|------------------1-3-----------|

        Part C

G |--------------------------------|--------------------------------|
D |--------------------------------|--------------------------------|
A |3-----3---3-1---1---3---------3-|5-------------------------------|
E |--------------3-------------6---|------5---------------------5---|
B |--------------------------------|------------3-------3-----3---3-|


G |--------------------------------|--------------------------------|
D |--------------------------------|--------------------------------|
A |----------------6---------------|------5-------------------------|
E |------------6-------6-----------|------------------------3-------|
B |4-----4---4---4-------------4-6-|3-----------3-----3-6-3---6-3---|


G |--------------------------------|--------------------------------|
D |--------------------------------|--------------------------------|
A |------3---3-1---1---3---------3-|5-------------------------------|
E |--------------3-------------6---|------5---------------------5---|
B |1-------------------------------|------------3-------3-----3---3-|


G |--------------------------------|--------------------------------|
D |--------------------------------|--------------------------------|
A |----------------6---------------|------5-------------------------|
E |------------6-------6-----------|------------------------3-------|
B |4-----4---4---4-------------4-6-|3-----------3-----3-6-3---6-3---|

        Part D

G |--------------------------------|--------------------------------|
D |--------------------------------|--------------------------------|
A |--------------------------------|--------------------------------|
E |3---1-----------------------1---|----3---------------6---5-------|
B |--------3---1-------3-----------|----------------------------6---|


G |--------------------------------|--------------------------------|
D |--------------------------------|----------------3---5-----------|
A |------------------------5---8\--|------------5-------------------|
E |------------8-------8-----------|----------------------------3---|
B |----8---------------------------|--------------------------------|


G |--------------------------------|------------7\------------------|
D |--5-----------------------------|------------5\------------------|
A |--------------------------------|--------------------------------|
E |----1-----------------------1---|----3-----------------------6---|
B |--------3---1-------3-----------|--------------------------------|
                                            

G |--------------------------------|--------------------------------|
D |--------------------------------|--------------------------------|
A |--------------------------------|--------------------------------|
E |----5---------------3-----------|------------1---------------1---|
B |------------6---------------1---|----1---3-----------3-----------|


G |--------------------------------|--------------------------------|
D |--------------------------------|----------------5-3---3---------|
A |----3-------1-------------------|--------------------5---5-3-----|
E |----------------3-1---------1---|----------------------------6---|
B |--------------------3---1-3-----|--------------------------------|

        Part E

G |--------------------------------|--------------------------------| \
D |----5-5---5-3-------------------|--------------------------------|  \
A |--------------5---3-5-----------|------------------8-----8-------|   |
E |3---------------3-----------6-8-|------8-------------8-----8-----|   |
B |-----------------------/8-------|6-----------6-6-------6-----6---|   |
                                                                        | x2
                                                                        |
G |--------------------------------|--------------------------------|   |
D |--------------------------------|------------------7-----7-------|   |
A |----6-6---6---6-----------------|--------5-5-0-5-----5-----5-----|   |
E |------------6-------3---6-3-----|----------------------5-----5---|  /
B |4-----------------4---4-----4---|3---3---------------------------| /

        Outro

G |--------------------------------|--------------------------------|
D |5-3---3-------------------------|--------------------------------|
A |----5---5-----5-3---------3-----|--------------------------------|
E |----------3-6-----6-3-------6-3-|-------/3-----------------------|
B |----------------------6-3-------|--------------------------------|
Login or Register to remove this ad.