Ads

Jin Kazama Stage (Tekken 3) Guitar Tab

Submitted: Feb 06, 2010 by LTRobson

4.5
Average: 4.5 (2 votes)
Download | Listen
Game: Tekken 3
Composer(s): Nobuyoshi Sano
Style: Alternate picking, Transcription
Series: Tekken

AutoScroll: Slow | Medium | Fast
 Tekken 3 - Jin Kazama Stage (PlayStation)
 Tabbed by LTRobson 07/02/10

 Standard tuning

 Tabbed from the point the drums enter

 -------------------------------------------------------------
 -------------------------------------------------------------
 --------2---------2------------------2---------5/4p2-4p2-----
 -4p2h4-----4p2h4-----4p2h4----4p2h4-----4p4h2------------4p2-
 -------------------------------------------------------------
 -------------------------------------------------------------

 ----------------------------------------------------------------
 ----------------------------------------------------------------
 --------2---------2---------5/4p2-4p2-----5/4p2-4p2-----4p2-----
 -4p2h4-----4p2h4-----4p2h4------------4p2-----------4p2-----4p2-
 ----------------------------------------------------------------
 ----------------------------------------------------------------

 That's the only bit of guitar there is, repeated/remixed a lot.
Login or Register to remove this ad.

3 comments on Jin Kazama Stage

SO CLOSE TO PERFECTO YO!!!

4

Awesome Man.
KUDOS!
I play it up on the 6th & 5th strings w/ no slide, just the pull-offs and I alternate doing the "5p4p2 4p2 4p2 5p4p2 4p2 4p2 4p2 4p2 w/ 5p4p2p 4p2 4p2 5p4p2 4p2 4p2 5p4p2 4p2 4p2". Listen close and I I'm confident you'll catch it ;-)

Tone wise, it does sound WAY better @ your location, it's just easier for me with the smaller frets.

I know I know I'm a cheater LOL j/k

Do you know any other Tekken tunes good sir?

There is a great Tekken 5

There is a great Tekken 5 Dark Resurrection song, called Snow Castle. Check it out, it has a jpop feel with great violin and soloing.

There is a great Tekken 5

There is a great Tekken 5 Dark Resurrection song, called Snow Castle. Check it out, it has a jpop feel with great violin and soloing.