Ads

Forrest Law Stage (Tekken 3) Guitar Tab

Submitted: Jan 21, 2010 by LTRobson (Last updated: Jan 21, 2010)

0
Download | Listen
Game: Tekken 3
Composer(s): Nobuyoshi Sano
Style: 2 or more instruments, Alternate picking, Transcription
Series: Tekken

AutoScroll: Slow | Medium | Fast
Tekken 3 - Forrest Law Stage (PlayStation)
Tabbed by LTRobson Jan 2010

Standard tuning

Intro

(high stabs over bass)
|-11--11--11--11--11--11---11-11- repeat
|-11--11--11--11--11--11---11-11-
|--------------------------------
|--------------------------------
|--------------------------------
|--------------------------------

00:09
|--------------------------------------
|-----------------------9--------------
|-8--------8--------8-6----------8-----
|--------------------------------------
|--------------------------------------
|--------------------------------------

00:18
|--------------------------------------
|-------------------7---------9--------
|-8-6---------8-6---------8-6------8-6-
|-----8-6---------8--------------------
|--------------------------------------
|--------------------------------------

00:26
|----------------------------------------
|-------------------7--------------------
|-8-6---------8-6---------8-6------8-6---
|-----8-6---------8--------------------8-
|----------------------------------------
|----------------------------------------

00:35
|---------------------------------------
|-------------------7---------9---------
|-8-6---------8-6---------8-6-------8-6-
|-----8-6---------8---------------------
|---------------------------------------
|---------------------------------------

00:43
|-----------------------------------------
|-------------------7---------------------
|-8-6---------8-6---------8-6-------8-6---
|-----8-----------8---------------------8-
|-----------------------------------------
|-----------------------------------------

00:52 repeat this section x2
|------------------------------------------------------
|------------------------------------------------------
|------------------------------------------------------
|-8-8--8-8--8-8--8-8--8-8-8--8-8--8-8--8-8--8-8--8-8-8-
|-6-6--6-6--6-6--6-6--6-6-6--6-6--6-6--6-6--6-6--6-6-6-
|------------------------------------------------------

|------------------------------------------------------
|------------------------------------------------8-6---
|------------------------------------------------8-6-6-
|-8-8--8-8--8-8--8-8--8-8-8--8-8--8-8--8-8--8-8------6-
|-6-6--6-6--6-6--6-6--6-6-6--6-6--6-6--6-6--6-6--------
|------------------------------------------------------

|------------------------------------------------------
|------------------------------------------------------
|------------------------------------------------------
|-8-8--8-8--8-8--8-8--8-8-8--8-8--8-8--8-8--8-8--8-8-8-
|-6-6--6-6--6-6--6-6--6-6-6--6-6--6-6--6-6--6-6--6-6-6-
|------------------------------------------------------

|-----------------------------------------------
|-----------------------------------------------
|-------------------------------------------9-8-
|-8-8--8-8--8-8--8-8--8-8-8--8-8--8-x-x-x-x-----
|-6-6--6-6--6-6--6-6--6-6-6--6-6--6-x-x-x-x-7-6-
|-----------------------------------------------


01:25
|--------------------------------------
|--------------------7--6--------------
|-8------------------6--6--8--6--8-----
|-8------------------------8--6--8-----
|-----6------------------------------6-
|-----6------------------------------6-

|--------------------------------------
|--------------------7--6--------------
|-8------------------6--6--8--6--8-----
|-8------------------------8--6--8-----
|-----6------------------------------6-
|-----6------------------------------6-


01:43 Solo
|--------------------------9------------11-9-----------8-9-10-11-------13-
|-------11-----10--9--7-----------9-11---------9---7-9-----------11-12----
|-8-----------------------------------------------------------------------
|-------------------------------------------------------------------------
|-------------------------------------------------------------------------
|-------------------------------------------------------------------------

|-11-------------------16--14-13----------19--18-16-----------18-19----19----
|--------9-----11----------------14-16---------------18-17-19-------18----18-
|----------------------------------------------------------------------------
|----------------------------------------------------------------------------
|----------------------------------------------------------------------------
|----------------------------------------------------------------------------

Or lower position
|-----------------------------------------------------------------
|---------------------------------------------------------------6-
|-------------------------6----------8-6------------5-6-7-8-------
|-------8-----7--6--4------------6-8-------6----4-6---------8-9---
|-6---------------------------------------------------------------
|-----------------------------------------------------------------

|---------------------------------7--6----------6-7---7---
|--------------------7--6--------------9----6-7-----6---6-
|-8-----------------------8-6-8-----------8---------------
|-------6-----8-------------------------------------------
|---------------------------------------------------------
|---------------------------------------------------------
Login or Register to remove this ad.