Ads

Eddie Gordo Stage (Tekken 3) Guitar Tab

Submitted: Jan 20, 2010 by LTRobson (Last updated: Jan 21, 2010)

5
Average: 5 (1 vote)
Download | Listen
Game: Tekken 3
Composer(s): Nobuyoshi Sano
Style: Alternate picking, Transcription
Series: Tekken

AutoScroll: Slow | Medium | Fast
Tekken 3 - Eddie Gordo Stage (PlayStation)
Tabbed by LTRobson Jan 2010

Standard tuning 
|-5--x-x-x-5-x-x-5/7-7-5-x-x-x-5-x-x-------x-x-5-x-x-x-
|-5--x-x-x-5-x-x-5/7-7-5-x-x-x-5-x-x-------x-x-5-x-x-x-
|-5--x-x-x-5-x-x-5/7-7-5-x-x-x-5-x-x-3/4-5-x-x-5-x-x-x-
|------------------------------------------------------
|------------------------------------1/2-3-------------
|------------------------------------------------------

|-5--x-x-x-5-x-x-5/7-7-5-x-x-x-5--5-5-x-5--------
|-5--x-x-x-5-x-x-5/7-7-5-x-x-x-5--5-5-x-5--------
|-5--x-x-x-5-x-x-5/7-7-5-x-x-x-5--5-5-x-5--3/4-5-
|------------------------------------------------
|------------------------------------------1/2-3-
|------------------------------------------------
Login or Register to remove this ad.

2 comments on Eddie Gordo Stage

jin kazama stage

5

hay thanks it helped me a lot buh i need jin kazama`s stage tabs plZzzzZ

thanks....!!!!!!!!!!

Cool. Just play that Eddy

Cool. Just play that Eddy Stage music with feel and don't be too strict on when to hit the notes between all the muting.

Jin Stage music for you - http://www.gametabs.net/tekken-3/jin-kazama-stage
Hope you like. It's very short also because of all the repeats.