Ads

Area 1 Overworld (Teenage Mutant Ninja Turtles) Guitar Tab

Submitted: Jan 15, 2010 by LTRobson

0
Download | Listen
Game: Teenage Mutant Ninja Turtles
Composer(s): Keizo Nakamura
Style: Alternate picking, Transcription

AutoScroll: Slow | Medium | Fast
Teenage Mutant Ninja Turtles - Area 1 Overworld (NES)
Tabbed by LTRobson 16/06/07

Standard tuning

|--------------------------10--10--8----10--8--10-|
|--------------------------11--11--8----11--8--11-|
|-------------------------------------------------|
|--------8-----------8----------------------------|
|-8--10-------8-8-10----8-------------------------|
|-------------------------------------------------|

|--------------------------10---12---8-|
|--------------------------11---13---8-|
|--------------------------------------|
|--------8-----------8-----------------|
|-8--10-------8-8-10----8--------------|
|--------------------------------------|

|-8-10-11-----------11--10--8--10--------------13-11--10--11--13-|
|-8-----8--------8-------------------11--------------------------|
|------------------------------------10--------------------------|
|----------------------------------------------------------------|
|----------------------------------------------------------------|
|----------------------------------------------------------------|

|-------10---------------10-10-----10--12---12---13--14-/-|
|-11-13-11----13----8----11-11-13--11--13---13---14--15-/-|
|-10-12-------12----7----------12-------------------------|
|---------------------------------------------------------|
|---------------------------------------------------------|
|---------------------------------------------------------|
Login or Register to remove this ad.