Ads

Raphael (Teenage Mutant Ninja Turtles: Tournament Fighters) Guitar Tab

Submitted: Dec 12, 2010 by soundsandstuff

0
Download | Listen
Game: Teenage Mutant Ninja Turtles: Tournament Fighters
Composer(s): Unknown
Style: Transcription

Click here for a video example.

AutoScroll: Slow | Medium | Fast
TMNT Tournament Fighters - Raphael
Platform: SNES/Super Nintendo Entertainment System
Developer/Publisher: Konami
Composed by: Kazuhiko Uehara
	     Hideto Inoue
	     Harumi Ueko
	

Electric Guitar Tab Created By: soundsandstuff channel www.youtube.com/user/soundsandstuff
Completed on: 7/21/10



Standard Tuning

===================================================================================================================

Part A           
E|-------------------------------|-----------------17----------------------|-------------------------------|
B|-------20-L-20--------19-L-19--|-------20------------------20--------19--|-------20-L-20--------19-L-19--|
G|-17-19----------17-19----------|-17-19-----17-19-----17-19-----17-19-----|-17-19----------17-19----------|
D|-------------------------------|-----------------------------------------|-------------------------------|
A|-------------------------------|-----------------------------------------|-------------------------------|
E|-------------------------------|-----------------------------------------|-------------------------------|


E|-----------------19--------17----------|-------------------------------|-----------------17----------------------|
B|-------20----------------------19------|-------20-L-20--------19-L-19--|-------20------------------20--------19--|
G|-17-19-----17-19-----17-19---------19--|-17-19----------17-19----------|-17-19-----17-19-----17-19-----17-19-----|
D|---------------------------------------|-------------------------------|-----------------------------------------|
A|---------------------------------------|-------------------------------|-----------------------------------------|
E|---------------------------------------|-------------------------------|-----------------------------------------|

									  Part B	
E|-------------------------------|-----------------19--------17----------|----------13-13----13----17----15-14-15----------|
B|-------20-L-20--------19-L-19--|-------20----------------------19------|----13-15-13-13----13----17----15-14-15----------|
G|-17-19----------17-19----------|-17-19-----17-19-----17-19---------19--|-14-------------------------------------16-------|
D|-------------------------------|---------------------------------------|-------------------------------------------------|
A|-------------------------------|---------------------------------------|-------------------------------------------------|
E|-------------------------------|---------------------------------------|-------------------------------------------------|


E|-------------------------------------------------|---------13-13----13----17----15-14-14----|
B|-12----13----15-12-------------------------------|---------13-13----13----17----15-14-15----|
G|----------------------12----------12-------------|---------------------------------------16-|
D|----------------------------12-14-------------15-|------------------------------------------|
A|----------------------------------------17-------|-14---------------------------------------|
E|-------------------------------------------------|----15------------------------------------|


E|----------------------------------------|----------------15-15----15----19----17-16-17----|
B|-13---15----15-13-15-12b----------------|----------------15-15----15----19----17-16-17----|
G|-------------------------------12-------|-12-------------------------------------------18-|
D|-------------------------12-14----12-14-|-------------------------------------------------|
A|----------------------------------------|-------------------------------------------------|
E|----------------------------------------|-------------------------------------------------|


E|--------------------------------------------|--------15-15----15----19----17-16-17-----|
B|-18b--19-17---------------------------------|--------15-15----15----19----17-16-17-----|
G|------------19-18-17----16b-----------------|--------------------------------------18--|
D|---------------------19-----17-18-19--------|----19------------------------------------|
A|-------------------------------------17-----|------------------------------------------|
E|-----------------------------------------20-|-20---------------------------------------|


E|----------------------17--------------19-----|
B|----------17-18----18----20--20----20----22--|
G|----16-19-------17--------------19-----------|
D|-19------------------------------------------|
A|---------------------------------------------|
E|---------------------------------------------|

===================================================================================================================
Notes:

- Thank you for playing!
Login or Register to remove this ad.