Ads

Michaelangelo (Teenage Mutant Ninja Turtles: Tournament Fighters) Guitar Tab

Submitted: Dec 12, 2010 by soundsandstuff

0
Download | Listen
Game: Teenage Mutant Ninja Turtles: Tournament Fighters
Composer(s): Unknown
Style: Arrangement

Click here for a video example.

AutoScroll: Slow | Medium | Fast
TMNT Tournament Fighters - Michelangelo
Platform: SNES/Super Nintendo Entertainment System
Developer/Publisher: Konami
Composed by: Kazuhiko Uehara
	     Hideto Inoue
	     Harumi Ueko
	

Electric Guitar Tab Created By: soundsandstuff channel www.youtube.com/user/soundsandstuff
Completed on: 7/21/10



Standard Tuning

===================================================================================================================
           

           Part A
E|--------|:-----------------------------------------------|-----------------------------------------|
B|--------|:-----------------------------------------------|-----------------------------------------|
G|--------|:-----------------------------------------------|-----------------------------------------|
D|--------|:--------------------------------2--1-----------|-----------------------------------------|
A|--------|:-------4-----2--0-----4------0--------2--0-----|-------4-----2--0------------------------|
E|--------|:-2--2-----2--------2------2-----------------2--|----2-----2--------2--0---0---0---2------|


E|-----------------------------------------------|-----------------------------------------|
B|-----------------------------------------------|-----------------------------------------|
G|-----------------------------------------------|-----------------------------------------|
D|--------------------------------2--1-----------|-----------------------------------------|
A|-------4-----2--0-----4------0--------2--0-----|-------4-----2--0------------------------|
E|-2--2-----2--------2------2-----------------2--|----2-----2--------2--0---0---0---2------|


E|-----------------------------------------------|-----------------------------------------|
B|-----------------------------------------------|-----------------------------------------|
G|-----------------------------------------------|-----------------------------------------|
D|--------------------------------2--1-----------|-----------------------------------------|
A|-------4-----2--0-----4------0--------2--0-----|-------4-----2--0------------------------|
E|-2--2-----2--------2------2-----------------2--|----2-----2--------2--0---0---0---2------|


E|-----------------------------------------------|-----------------------------------------|
B|-----------------------------------------------|-----------------------------------------|
G|-----------------------------------------------|-----------------------------------------|
D|--------------------------------2--1-----------|-----------------------------------------|
A|-------4-----2--0-----4------0--------2--0-----|-------4-----2--0------------------------|
E|-2--2-----2--------2------2-----------------2--|----2-----2--------2--0---0---0---2------|


Part B (First Ending)
E|-------------------------------------------|---------------------------------------|
B|-------------------------------------------|---------------------------------------|
G|-------------------------------------------|---------------------------------------|
D|-------2--1--------------------------------|-------2--1---4------------------------|
A|-0--2------------0-----2--0-----0---2------|-0--2-------------0--2---0--2---0--2---|
E|--------------2-----2--------2----------2--|---------------------------------------|


E|-------------------------------------------|---------------------------------------|
B|-------------------------------------------|---------------------------------------|
G|-------------------------------------------|---------------------------------------|
D|-------2--1--------------------------------|-------2--1---4------------------------|
A|-0--2------------0-----2--0-----0---2------|-0--2-------------0--2---0--2---0--2---|
E|--------------2-----2--------2----------2--|---------------------------------------|


E|-------------------------------------------|---------------------------------------|
B|-------------------------------------------|---------------------------------------|
G|-------------------------------------------|--------------1------------------------|
D|-------4--3--------------------------------|-------4--3----------------------------|
A|-2--4------------2-----4--2-----2---4------|-2--4-------------2--4---2--4---2--4---|
E|--------------4-----4--------4----------4--|---------------------------------------|



					 Repeat from Part A once  Part C (Second Ending)			 
E|-------------------------------------------|-------------------:|-------------------------------------------|
B|-------------------------------------------|-------------------:|-------------------------------------------|
G|-------------------------------------------|-------------------:|-------9--8--------------------------------|
D|-------4--3--------------------------------|-------------------:|-7--9------------7-----9--7-----7---9------|
A|-2--4------------2-----4--2-----2---4------|-2---3---4-L-4-----:|--------------9-----9--------9----------9--|
E|--------------4-----4--------4----------4--|-------------------:|-------------------------------------------|


E|---------------------------------------|-------------------------------------------|
B|--------------7------------------------|-------------------------------------------|
G|-------9--8----------------------------|-------9--8--------------------------------|
D|-7--9-------------7--9---7--9---7--9---|-7--9------------7-----9--7-----7---9------|
A|---------------------------------------|--------------9-----9--------9----------9--|
E|---------------------------------------|-------------------------------------------|


E|---------------------------------------|-------------------------------------------|
B|--------------7------------------------|-------------------------------------------|
G|-------9--8----------------------------|-------11-10-------------------------------|
D|-7--9-------------7--9---7--9---7--9---|-9--11-----------9-----11-9-----9---11-----|
A|---------------------------------------|--------------11----11-------11---------11-|
E|---------------------------------------|-------------------------------------------|


E|---------------------------------------|-------------------------------------------|
B|--------------9------------------------|-------------------------------------------|
G|-------11-10---------------------------|-------11-10-------------------------------|
D|-9--11------------9--11--9--11--9--11--|-9--11-----------9-----11-9-----9---11-----|
A|---------------------------------------|--------------11----11-------11---------11-|
E|---------------------------------------|-------------------------------------------|


E|-------------------|
B|-------------------|
G|-------------------|
D|-9---10--11-L11----|
A|-------------------|
E|-------------------|

===================================================================================================================
Notes:
- After repeating Part A, skip the first ending (Part B) and go directly to the second ending (Part C)
- This tab was made according to my youtube video  http://www.youtube.com/user/soundsandstuff#p/u/25/KjqDeYAX1kk

- Thank you for playing!
Login or Register to remove this ad.