Star Base: Where No Turtle Has Gone Before (Teenage Mutant Ninja Turtles IV: Turtles in Time) Guitar Tab

Submitted: Aug 05, 2011 by soundsandstuff (Last updated: Aug 11, 2011)

3.5
Average: 3.5 (2 votes)
Download | Listen
Game: Teenage Mutant Ninja Turtles IV: Turtles in Time
Composer(s): Kazuhiko Uehara, Harumi Ueko
Style: Alternate picking, Transcription

AutoScroll: Slow | Medium | Fast
Teenage Mutant Ninja Turtles 4: Turtles in Time - Star Base 
Platform: SNES
Composed by: Mutsuhiko Izumi
Produced by: Kazuhiko Uehara and Harumi Ueko

Electric Guitar Tab Created By: soundsandstuff channel www.youtube.com/user/soundsandstuff
Completed on 8/4/11

Standard Tuning

Rhythm Guitar

  Part A
E|-------------------------------------------------|-------------------------------------------------|
B|-------------------------------------------------|-------------------------------------------------|
G|-------------------------------------------------|-------------------------------------------------|
D|-------2-----------------------------------2-----|-------2-----------------------------------------|
A|-------------5-----4-----5-----4-----5-----------|-------------5-----4-----5-----4-----5-----4-----|
E|-0--0-----0-----0-----0-----0-----0-----0-----3l-|-3--3-----3-----3-----3-----3-----3-----3-----5L-|


E|-------------------------------------------------|-------------------------------------------|
B|-------------------------------------------------|-------------------------------------------|
G|-------------------------------------------------|-------------------------------------------|
D|-------------------------------------------------|-------2------2----------------------------|
A|-------7-----5-----4-----5-----4-----5-----7-----|-------2------2------5-----2-----5--4------|
E|-5--5-----5-----5-----5-----5-----5-----5-----5--|-0--0------0------------0-----0------------|

  

  Part B
E|-------------------------------------------------|-------------------------------------------------|
B|-------------------------------------------------|-------------------------------------------------|
G|-------------------------------------------------|-------------------------------------------------|
D|-------2-----------------------------------2-----|-------2-----------------------------------------|
A|-------------5-----4-----5-----4-----5-----------|-------------5-----4-----5-----4-----5-----4-----|
E|-0--0-----0-----0-----0-----0-----0-----0-----3--|-3--3-----3-----3-----3-----3-----3-----3-----5--|


E|---------------------------------------------|---------------------------------------------|
B|---------------------------------------------|---------------------------------------------|
G|---------------------------------------------|---------------------------------------------|
D|---------------------------------------------|-------2-------------------------------------|
A|-------7-----5-----4-----------7---------7---|-------------5-----4---5-----4-----5--4------|
E|-5--5-----5-----5-----5--5--5--5---5--5--5---|-0--0-----0-----0---------0-----0------------|



  Part C
E|-------------------------------------------------|-------------------------------------------------|
B|-------------------------------------------------|-------------------------------------------------|
G|-------------------------------------------------|-------------------------------------------------|
D|-------2-----------------------------------2-----|-------2-----------------------------------------|
A|-------------5-----4-----5-----4-----5-----------|-------------5-----4-----5-----4-----5-----4-----|
E|-0--0-----0-----0-----0-----0-----0-----0-----3L-|-3--3-----3-----3-----3-----3-----3-----3-----5L-|


E|---------------------------------------------|-------------------------------------------------|
B|---------------------------------------------|-------------------------------------------------|
G|---------------------------------------------|-------------------------------------------------|
D|---------------------------------------------|-2-----------------------2--2--2--2--------0--2--|
A|-------7-----5-----4-----------4---------4---|----------5--------4-----------------------------|
E|-5--5-----5-----5-----5--5--5--5---5--5--5---|----0--0-----0--0-----0--------------0--3--------|



  Part D
E|-----------------|-------------------------------------------------|-----------------|
B|-----------------|-------------------------------------------------|-----------------|
G|-----------------|-------------------------------------------------|-----------------|
D|-----------------|-------2-----------------------------------------|-----------------|
A|-5-----4----3----|-------------5-----4-----5-----4-----5-----4-----|-5-----4----3----|
E|-3-----2----1----|-0--0-----0-----0-----0-----0-----0-----0-----0--|-3-----2----1----|


E|-------------------------------------------------|-------------|-----------------------------|
B|-------------------------------------------------|-------------|-----------------------------|
G|-------------------------------------------------|-------------|-----------------------------|
D|-------2-----------------------------------------|-2-----4-----|-5--------------------7------|
A|-------------5-----4-----5-----4-----5-----4-----|-0-----2-----|-3-----5--5--5--5--5--5------|
E|-0--0-----0-----0-----0-----0-----0-----0-----0--|-------------|-----------------------------|


E|-----------------------------------------|-------------------------------------------|
B|-----------------------------------------|-------------------------------------------|
G|-----------------------------------------|-------------------------------------------|
D|-2-------------------2-------------------|-2-------------------2--2--2--2--0--2------|
A|----------5---4---2-----------5---4---2--|----------5---4---2------------------------|
E|----0--0----------------0--0-------------|----0--0-----------------------------------| 	Repeat from part A



Notes:

L - tied note

I tried to make this tab as close to the original as possible but there were some parts 
I couldn't quite make out the rhythm guitar so I just placed some power chords that fit
with the song in there, it works out in a way since I think it makes the tab more playable. 

Thank you for playing!

Login or Register to remove this ad.

1 comment on Star Base: Where No Turtle Has Gone Before

Crosspicking. Yes.

Crosspicking. Yes.