Bury My Shell at Wounded Knee (Teenage Mutant Ninja Turtles IV: Turtles in Time) Guitar Tab

Submitted: May 22, 2011 by Ranulf

0
Download | Listen
Game: Teenage Mutant Ninja Turtles IV: Turtles in Time
Composer(s): Kazuhiko Uehara, Harumi Ueko
Style: Transcription

AutoScroll: Slow | Medium | Fast
Bury My Shell at Wounded Knee
Teenage Mutant Ninja Turtles IV: Turtles in Time
Super Nintendo
Tabbed by John Adams
Composed by Kazuhiko Uehara and Harumi Ueko 
5/21/11


e||----------------------------------------------------------------------------------------------------|
B||-------------------------------------------------------------------------13-----10--12--------------|
G||*-------14-----12----------------------------------------14-----12----------------------------12-14-|
D||*--14---------------14-----10---12-----10-----------14---------------14--------------------14-------|
A||--------------------------------------------12------------------------------------------------------|
E||----------------------------------------------------------------------------------------------------|

|----------------------------------------------------------------|
|----------------------------------------------------------------|
|--------12------------------------------------------------------|
|--12-14-------14-12-14----12-10-12-------12-10------------------|
|--------------------------------------10-------12--10--12-10-12-|
|----------------------------------------------------------------|

|----------------------------------------------------------------------|
|--------------------------------------15-------15-13------------------|
|--------12-------12-14-12-14----12-14-------12-------14--12--14-12-14-|
|--12-14-------14------------------------------------------------------|
|----------------------------------------------------------------------|
|----------------------------------------------------------------------|

|-------------------------------------------------------------------------|
|----------------------------------------------------------------17-15-17-|
|----------------12--14-----12---12----12-14--16----17-16-17--------------|
|--15---15-14-15--------------------15------------------------------------|
|-------------------------------------------------------------------------|
|-------------------------------------------------------------------------|

|-------------------------------------------------------------------------17-15-17--||
|--------------------------------------------------------------17-15-17-------------||
|----------------12--14-----12---12----12-14--16----17-16-17-----------------------*||
|--15---15-14-15--------------------15---------------------------------------------*||
|-----------------------------------------------------------------------------------||
|-----------------------------------------------------------------------------------||
Repeat as much as you want
Login or Register to remove this ad.