Alleycat Blues (Teenage Mutant Ninja Turtles IV: Turtles in Time) Bass Tab

Submitted: Nov 17, 2009 by auriplane (Last updated: Nov 17, 2009)

5
Average: 5 (1 vote)
Download | Listen
Game: Teenage Mutant Ninja Turtles IV: Turtles in Time
Composer(s): Kazuhiko Uehara, Harumi Ueko
Style: Transcription

AutoScroll: Slow | Medium | Fast
                          TMNT 4: Turtles in Time - Alleycat Blues BASS TAB
                                     Harumi Ueko, Kazuhiko Uehara

                               Tabbed by auriplane ([email protected])


Five-string bass, Bb-standard tuning (that's all strings down a half step.)  There's also a four-
string version, if you scroll down.

T = triplets.  The rhythm for everything else should be pretty obvious, but if I ever finish my GP5 
I can upload it.  (I have one guitar part done, so if you want what I have so far, let me know.)


Gb |------------------------------------------------|------------------------------------------------|
Db |------------------------------------------------|------------------------------------------------|
Ab |------------------------------------------------|------------------------------------------------|
Eb |2-----------------------------------------------|------2-----------2-----2---2-5---2-------------|
Bb |------------------------------------------------|------------------------------------5---2-0---2-|
                                                                                                 
                                                                                                 
Gb |------------------------------------------------|------------------------------------------------|
Db |------------------------------------------------|------------------------------------------------|
Ab |------------------------------------------------|------------------------------------------------|
Eb |2---2-2---2-2---2-2---2-2---2-2---2-0---0-1---1-|2---2-2---2-2---2-2---2-2---2-2---2-0---0-1---1-|
Bb |------------------------------------------------|------------------------------------------------|
                                                                                                 
                                                                                                 
Gb |------------------------------------------------|------------------------------------------------|
Db |------------------------------------------------|------------------------------------------------|
Ab |------------------------------------------------|2---2-2---2-2---2-2---2-2---2-2---2-2---2-2---2-|
Eb |------------------------------------------------|------------------------------------------------|
Bb |5---5-5---5-5---5-5---5-5---5-5---5-5---5-5---5-|------------------------------------------------|
                                                                                                 
                                                                                                 
Gb |------------------------------------------------|------------------------------------------------|
Db |------------------------------------------------|------------------------------------------------|
Ab |------------------------------------------------|------------------------------------------------|
Eb |2---2-2---2-2---2-2---2-2---2-2---2-0---0-1---1-|2---2-2---2-2---2-2---2-2---2-5---2-------------|
Bb |------------------------------------------------|------------------------------------5---2-0---2-|
                                                                                                 
                                                                       T T T T T T  
Gb |------------------------------------------------|------------------------------------------------|
Db |------------------------------------------------|------------------------------------------------|
Ab |------------------------------------------------|2---2-2---2-2---2-------2-2-2-2-----2-----3-----|
Eb |------------------------------------------------|------------------2-4-5-------------------------|
Bb |5---5-5---5-5---5-5---5-5---5-5---5-5---5-5---5-|------------------------------------------------|
                                                                                                 
                                                                                                 
Gb |------------------------------------------------|------------------------------------------------|
Db |------------------------------------------1-----|2---2-2---2-2---2-2---2-2---2-1---1-2---2-3---3-|
Ab |4---4-4---4-4---4-4---4-4---4-2-----4-----------|------------------------------------------------|
Eb |----------------------------------1-----1-----1-|------------------------------------------------|
Bb |------------------------------------------------|------------------------------------------------|
                                                                                                 
                                                                                                 
Gb |------------------------------------------------|------------------------------------------------|
Db |------------------------------------------------|------------------------------------------------|
Ab |------------------------------------------------|------------------------------------------------|
Eb |2---2-5---2-6---2-0---2-2---2-2---2-2---2-----0-|2---2-5---2-6---2-0---1-2---2-5---2-------------|
Bb |------------------------------------------2-----|------------------------------------5---2-0---2-|
                                                                                                 
                                                                                                 
Gb |------------------------------------------------|------------------------------------------------|
Db |------------------------------------------1-----|2---2-2---2-2---2-2---2-2---2-1---1-2---2-3---3-|
Ab |4---4-4---4-4---4-4---4-4---4-2-----4-----------|------------------------------------------------|
Eb |----------------------------------1-----1-----1-|------------------------------------------------|
Bb |------------------------------------------------|------------------------------------------------|
                                                                                                  
                                                                             T T T T T T                
Gb |------------------------------------------------|------------------------------------------------|
Db |------------------------------------------------|------------------------------------------------|
Ab |------------------------------------------------|------------------------------0-2-3-4-----------|
Eb |2---2-2---2-0---0-0---0-2---2-2---2-5---5-5---5-|2---2-2---2-0---0-0---0-2-0-2-------------------|
Bb |------------------------------------------------|------------------------------------------------|

    There's an extra beat at the end before it repeats for some reason.



                                          Four-string version

G |------------------------------------------------|------------------------------------------------|
D |------------------------------------------------|------------------------------6-----------------|
A |8-----------------------------------------------|------8-----------8-----8---8-----8-6-----------|
E |------------------------------------------------|----------------------------------------8-6---8-|
                                                                                                 
                                                                                                 
G |------------------------------------------------|------------------------------------------------|
D |------------------------------------------------|------------------------------------------------|
A |8---8-8---8-8---8-8---8-8---8-8---8-6---6-7---7-|8---8-8---8-8---8-8---8-8---8-8---8-6---6-7---7-|
E |------------------------------------------------|------------------------------------------------|
                                                                                                 
                                                                                                 
G |------------------------------------------------|------------------------------------------------|
D |------------------------------------------------|8---8-8---8-8---8-8---8-8---8-8---8-8---8-8---8-|
A |6---6-6---6-6---6-6---6-6---6-6---6-6---6-6---6-|------------------------------------------------|
E |------------------------------------------------|------------------------------------------------|
                                                                                                 
                                                                                                 
G |------------------------------------------------|------------------------------------------------|
D |------------------------------------------------|------------------------------6-----------------|
A |8---8-8---8-8---8-8---8-8---8-8---8-6---6-7---7-|8---8-8---8-8---8-8---8-8---8-----8-6-----------|
E |------------------------------------------------|----------------------------------------8-6---8-|
                                                                                                 
                                                                      T T T T T T                
G |------------------------------------------------|------------------------------------------------|
D |------------------------------------------------|8---8-8---8-8---8---5-6-8-8-8-8-----8-----9-----|
A |6---6-6---6-6---6-6---6-6---6-6---6-6---6-6---6-|------------------8-----------------------------|
E |------------------------------------------------|------------------------------------------------|
                                                                                                 
                                                                                                 
G |------------------------------------------7-----|8---8-8---8-8---8-8---8-8---8-7---7-8---8-9---9-|
D |10--1010--1010--1010--1010--108-----10----------|------------------------------------------------|
A |----------------------------------7-----7-----7-|------------------------------------------------|
E |------------------------------------------------|------------------------------------------------|
                                                                                                 
                                                                                                 
G |------------------------------------------------|------------------------------------------------|
D |------6-----7-----------------------------------|------6-----7-----------------6-----------------|
A |8---8-----8-----8-6---8-8---8-8---8-8---8-----6-|8---8-----8-----8-6---7-8---8-----8-6-----------|
E |------------------------------------------8-----|----------------------------------------8-6---8-|
                                                                                                 
                                                                                                 
G |------------------------------------------7-----|8---8-8---8-8---8-8---8-8---8-7---7-8---8-9---9-|
D |10--1010--1010--1010--1010--108-----10----------|------------------------------------------------|
A |----------------------------------7-----7-----7-|------------------------------------------------|
E |------------------------------------------------|------------------------------------------------|
                                                 
                                                                            T T T T T T                
G |------------------------------------------------|------------------------------------------------|
D |------------------------------------6---6-6---6-|------------------------------6-8-9-10----------|
A |8---8-8---8-6---6-6---6-8---8-8---8-------------|8---8-8---8-6---6-6---6-8-6-8-------------------|
E |------------------------------------------------|------------------------------------------------|
Login or Register to remove this ad.

2 comments on Alleycat Blues

Yes!!!!!

Ninja Turtles!!!!!!!!!!!

Nice job. We can has guitars?

Nice job. We can has guitars?