Ads

Main Theme (Tamayura) Guitar Tab

Submitted: Jul 26, 2013 by tomorning (Last updated: Sep 02, 2013)

5
Average: 5 (5 votes)
Download | Listen
Game: Tamayura
Composer(s): Nobuyuki Nakazima
Style: Arrangement, Fingerstyle

AutoScroll: Slow | Medium | Fast
 TAMAYURA MAIN THEME -Guitar Solo-

Music by Nobuyuki Nakazima
(non tac arranged version, Guitar solo Arrangement by to*morning)

Gtr I (E A D G B E) - 

  Q=82 (Original Tempo 116)
  (a Tempo)

e|--------5-----------|-------5-----------|-------5-----------|-----------------0-||
B|------3-------3---3-|-----3-------3---3-|-----3-------3---3-|-----0-3-----2-3---||
G|----2-----------2---|---2-----------2---|---2-----------2---|-0-2---0-----------||
D|--------------------|-------------------|-------------------|-2-----2-----------||
A|--------------------|-------------------|-------------------|-------0-----------||
E|--3-----------------|-2-----------------|-3-----------------|-0-----------------||



||-----2-------2--5--7---5------|---------------2--3---2------|-----------------------------|-3--2--0-------------------0---|
||---------3---------5----------|----3-------3-------------3--|----0---2---3---------3------|-----------3-----------3-------|
||*----2---------------------7--|--------2---------2----------|--------0------2-------------|-------------------2-----------|
||*-0---------------------------|----4---------------------4--|----0-------------0-------0--|-------------------5-----------|
||----------------4-------------|-2-------------0-------------|-----------------------------|-----------0-------------------|
||------------------------------|-----------------------------|-3-------------2-------------|-0--2--3-----------------------|


                                                                                           1.------------------------------|

|-----2-------2--5--7---5------|---------------2--3---2------|-----------------------------|-3--2--0-----------------------||
|---------3---------5----------|----3-------3-------------3--|----0---2---3---------3------|-----------3-------------------||
|-----2---------------------7--|--------2---------2----------|--------0------2-------------|------------------------------*||
|--0---------------------------|----4---------------------4--|----0-------------0-------0--|-----------0-----------0------*||
|----------------4-------------|-2-------------0-------------|-----------------------------|-------0-----------0-----------||
|------------------------------|-----------------------------|-3-------------2-------------|-0--3--------------------------||


 2.-----------------------------|

|-3--2--0----------------------||
|----------3-------------------||
|----------------------2-------||
|------------------4-----------||
|-------0--5-------------------||
|-0--3-------------------------||


 Q=60 (Original Tempo 96)
(ritenuto)
                                                                    c12----------/
                                                                                                fermete
|----------------5--|-7-------------10------------|---------10------17-----------|-----------------|
|--0-2-3---------3--|-----------------------------|------------------------------|-------0---------|
|---------4--2------|--------4--------------------|------------------------------|-2-0-2-----------|
|------4-------0----|-5--7-------5---0------<12>--|--9--11--12---------14-12-----|---------^4--^2--|
|-------------------|----------------9-<12>-------|-10----------14--12-----------|---2-----^4--^4--|
|--3---------2------|-0---------------------------|--------------------------14--|-0-------^5--^5--|



                                                    Q=82 (Original Tempo 116)
                                                   (a Tempo)

|---0-2---9-----10-|-5-----------0-2-|-^5-3--------|------------------0-||
|-3-----3----------|-----3-----------|-^3----------|------0-3-----2-3---||
|-----2------------|-------2-----2---|-^4---4------|--0-2---0-----------||
|---4---------7----|---4-------4-----|------5------|--2-----2-----------||
|-2---------9------|-0---------------|-------------|--------0-------0---||
|---------6--------|---------4-------|--3----------|--0-----------------||



||----2-------2--5--7---5------|---------------2--3---2------|-----------------------------|-3--2---0-------------------0---|
||--------3---------5----------|----3-------3-------------3--|----0---2---3---------3------|------------3-----------3-------|
||*---2---------------------7--|--------2---------2----------|--------0------2-------------|--------------------2-----------|
||*-0--------------------------|----4---------------------4--|----0-------------0-------0--|-2------------------5-----------|
||----------------4------------|-2-------------0-------------|-----------------------------|------------0-----------0-------|
||-----------------------------|-----------------------------|-3-------------2-------------|-0--2---3-----------------------|


                                                                                           1.------------------------------|

|----2-------2--5--7---5------|---------------2--3---2------|-----------------------------|-3--2---0-----------------------||
|--------3---------5----------|----3-------3-------------3--|----0---2---3---------3------|------------3-------------------||
|----2---------------------7--|--------2---------2----------|--------0------2-------------|-------------------------------*||
|-0---------------------------|----4---------------------4--|----0-------------0-------0--|-2----------0-----------0------*||
|---------------4-------------|-2-------------0-------------|-----------------------------|--------------------0-----------||
|-----------------------------|-----------------------------|-3-------------2-------------|-0--2---3-----------------------||


2.----------------------|

|-3--2---0--------------||
|-----------3---------0-||
|-----------2-------2---||
|-2---------4-----------||
|--------0--5-----------||
|-0--3------------------||



  Q=76  (Original Tempo 80)
(ritenuto)

||-------0--------|--------------------|-------0--------|------------------0--|
||-1-0---------3--|------------------0-|-1-0---------3--|----------------3----|
||-----2---0------|----------------2---|-----2---0------|---------------------|
||-----2-------0--|-<5>----------------|-----2-------0--|-<5>-----------------|
||---3-------2----|-<5>----------------|---3-------2----|-<5>-----------------|
||-1-------0------|-(0)----------------|-1-------0------|-(0)-----------------|


|--1-0---5-----3--|------------------0-|-1-0---5-----3--|---------------------||
|------3---1------|----------------3---|-----3---1------|---------------------||
|------3-------0--|-<5>----------------|-----3-------0--|-<5>-----------------||
|----3-------2----|-<5>----------------|---3-------2----|-<5>-----------------||
|--1-------0------|-(0)----------------|-1-------0------|-(0)-----------------||
|-----------------|--------------------|----------------|---------------------||



  Q=82 (Original Tempo 116)
(a Tempo)

|-------5-----------|-------5-----------|-------5-----------|-------5-----------|
|-----3-------3---3-|-----3-------3---3-|-----3-------3---3-|-----3-------3---3-|
|---2-----------2---|---2-----------2---|---2-----------2---|---2-----------2---|
|-------------------|-------------------|-------------------|-------------------|
|-------------------|-------------------|-------------------|-------------------|
|-3-----------------|-2-----------------|-3-----------------|-2-----------------|

                                             rit...

|-------5---------5-|-------5---------5-|-------5---------5-|-^2-----||
|-----3---------3---|-----3---------3---|-----3---------3---|-^2-----||
|---2---------2-----|---2---------2-----|---2---------2-----|-^2-----|| fine
|-------------------|-------------------|-------------------|-^4-----||
|-------------------|-------------------|-------------------|-^5-----||
|-3-----------------|-2-----------------|-3-----------------|--------||
Login or Register to remove this ad.

2 comments on Main Theme

beautiful arrangment

5

It sounds fantastic , many thanks to*morning
ost : http://www.youtube.com/watch?v=l56JNpwi2Dg

i likey

i likey