Ads

Break Through with the Sword (Tales of Innocence) Guitar Tab

Submitted: Jun 21, 2011 by Kiku

5
Average: 5 (1 vote)
Download | Listen
Game: Tales of Innocence
Composer(s): Kazuhiro Nakamura
Style: Transcription
Series: Tales

AutoScroll: Slow | Medium | Fast
Break Through with the Sword (Ken o Motte Kirihirake)
Tales of Innocence
Composed by Kazuhiro Nakamura
Tabbed by Kiku
2011-06-21

BPM: 165


            Break Through with the Sword (Ken o Motte Kirihirake)               


Guitar
      H         Q     Q        H         H            H        Q     Q     
E||------------------------|----------------------|-----------------------|
B||--12--------10----12----|--13------------------|-----------------------|
G||------------------------|------------12--------|--11--------9----------|
D||------------------------|----------------------|-----------------12----|
A||------------------------|----------------------|-----------------------|
E||------------------------|----------------------|-----------------------|


   H         H           H         Q     Q        Q     Q     Q     Q     
----------------------|-----------------------|--------------------------|
--12------------------|-----------------------|--10----------------------|
------------11--------|--9--------11----12----|--------12----11----12----|
----------------------|-----------------------|--------------------------|
----------------------|-----------------------|--------------------------|
----------------------|-----------------------|--------------------------|


   W                    W                    H         Q     Q     
--------------------|--------------------|------------------------|
--12----------------|--10----------------|--12--------10----12----|
--------------------|--------------------|------------------------|
--------------------|--------------------|------------------------|
--------------------|--------------------|------------------------|
--------------------|--------------------|------------------------|


   H         H            H        Q     Q        H         H         
----------------------|-----------------------|----------------------|
--13------------------|-----------------------|--12------------------|
------------12--------|--11--------9----------|------------11--------|
----------------------|-----------------12----|----------------------|
----------------------|-----------------------|----------------------|
----------------------|-----------------------|----------------------|


  H         Q     Q        Q     Q     Q     Q        W                 
-----------------------|--------------------------|--------------------|
-----------------------|--10----------------------|--12----------------|
--9--------11----12----|--------12----11----12----|--------------------|
-----------------------|--------------------------|--------------------|
-----------------------|--------------------------|--------------------|
-----------------------|--------------------------|--------------------|


   W                   E  E  E  E  E  E  E  E     H        Q     E   E   
--------------------|--------------------------|------------------------|
--10----------------|--------------------------|------------------------|
--------------------|--------------------------|-----------9----11--12--|
--------------------|--------------------5--5--|------------------------|
--------------------|--2--2-----5--5-----3--3--|------------------------|
--------------------|--0--0-----3--3-----------|------------------------|


  E  Q    E   Q.      E     H         Q    E   E     E   Q     E   Q     E  E   
-------------------------|------------------------|----------------------------|
-------------------------|------------------------|----------------------------|
--L--9-------------------|-----------------9--11--|--L-------------------------|
----------9--12------10--|--L--------12-----------|-----12--------10----12--9--|
-------------------------|------------------------|-----------12---------------|
-------------------------|------------------------|----------------------------|


  H        Q     E   E     E  Q     E   Q.      E     Q     Q     Q     E   E   
------------------------|--------------------------|---------------------------|
------------------------|--------------10----------|-----------------------10--|
-----------9----11--12--|--L--9----12----------12--|--L----12----11----12------|
--L---------------------|--------------------------|---------------------------|
------------------------|--------------------------|---------------------------|
------------------------|--------------------------|---------------------------|


  E   Q     E  E  E  E   E     E   E  E   E   Q     Q     
----------------------------|----------------------------|
--L-------------------------|----------------------------|
-----12----11--9-----9------|----------------------------|
------------------9-----12--|---------9--12--10----12----|
----------------------------|-----12---------------------|
----------------------------|----------------------------|


  Q     Q     Q    Q        Q     Q     H            Q     Q     H         
------------------------|------------------------|------------------------|
------------------------|------------------------|--10--------------------|
--9----12----11----9----|------------------------|--------11----12--------|
------------------------|--12----10----12--------|------------------------|
------------------------|------------------------|------------------------|
------------------------|------------------------|------------------------|


  H        Q     E   E      H         Q     E   E     H         Q     Q     
------------------------|--------------------------|-----------------------|
------------------------|--------------------------|-----------------------|
--L--------9----11--12--|---L--------------11--12--|--L--------------------|
------------------------|------------12------------|-----------10----12----|
------------------------|--------------------------|-----------------------|
------------------------|--------------------------|-----------------------|


  Q     Q     H           W                   H         H         
-----------------------|-------------------|---------------------|
-----------------------|-------------------|-----------10--------|
--9----12----12--------|--L----------------|--L------------------|
-----------------------|-------------------|---------------------|
-----------------------|-------------------|---------------------|
-----------------------|-------------------|---------------------|


  W                   H            H         Q     Q        H         H         
-------------------|-----------|------------------------|----------------------|
--L----------------|--L--------|--12--------10----12----|--13------------------|
-------------------|-----------|------------------------|------------12--------|
-------------------|-----------|------------------------|----------------------|
-------------------|-----------|------------------------|----------------------|
-------------------|-----------|------------------------|----------------------|


   H        Q     Q        H         H           H         Q     Q     
-----------------------|----------------------|-----------------------|
-----------------------|--12------------------|-----------------------|
--11--------9----------|------------11--------|--9--------11----12----|
-----------------12----|----------------------|-----------------------|
-----------------------|----------------------|-----------------------|
-----------------------|----------------------|-----------------------|


   Q     Q     Q     Q        W                    W                 
--------------------------|--------------------|--------------------|
--10----------------------|--12----------------|--10----------------|
--------12----11----12----|--------------------|--------------------|
--------------------------|--------------------|--------------------|
--------------------------|--------------------|--------------------|
--------------------------|--------------------|--------------------|


   H         Q     Q        H         H            H        Q     Q     
------------------------|----------------------|-----------------------|
--12--------10----12----|--13------------------|-----------------------|
------------------------|------------12--------|--11--------9----------|
------------------------|----------------------|-----------------12----|
------------------------|----------------------|-----------------------|
------------------------|----------------------|-----------------------|


   H         H           H         Q     Q        Q     Q     Q     Q     
----------------------|-----------------------|--------------------------|
--12------------------|-----------------------|--10----------------------|
------------11--------|--9--------11----12----|--------12----11----12----|
----------------------|-----------------------|--------------------------|
----------------------|-----------------------|--------------------------|
----------------------|-----------------------|--------------------------|


   W                   W                    W                 
--------------------|-------------------|--------------------|
--12----------------|--L----------------|--10----------------|
--------------------|-------------------|--------------------|
--------------------|-------------------|--------------------|
--------------------|-------------------|--------------------|
--------------------|-------------------|--------------------|


  W                   E  E  E  E  E  E  E  E     H        Q     E   E   
-------------------|--------------------------|------------------------|
--L----------------|--------------------------|------------------------|
-------------------|--------------------------|-----------9----11--12--|
-------------------|--------------------5--5--|------------------------|
-------------------|--2--2-----5--5-----3--3--|------------------------|
-------------------|--0--0-----3--3-----------|------------------------|


  E  Q    E   Q.      E     H         Q    E   E     E   Q     E   Q     E  E   
-------------------------|------------------------|----------------------------|
-------------------------|------------------------|----------------------------|
--L--9-------------------|-----------------9--11--|--L-------------------------|
----------9--12------10--|--L--------12-----------|-----12--------10----12--9--|
-------------------------|------------------------|-----------12---------------|
-------------------------|------------------------|----------------------------|


  H        Q     E   E     E  Q     E   Q.      E   
------------------------|--------------------------|
------------------------|--------------10----------|
-----------9----11--12--|--L--9----12----------12--|
--L---------------------|--------------------------|
------------------------|--------------------------|
------------------------|--------------------------|


  Q     Q     Q     E   E    
---------------------------||
-----------------------10--||
--L----12----11----12------||
---------------------------||
---------------------------||
---------------------------||




Duration Legend
---------------
W - whole
H - half
Q - quarter
E - 8th
S - 16th
T - 32nd
X - 64th
. - note dotted
|-n-|  - n-tuplets


Tablature Legend
----------------
L - tied note
x - dead note
g - grace note
(n) - ghost note
> - accentuded note
NH - natural harmonic
AH - artificial harmonic
TH - tapped harmonic
SH - semi harmonic
PH - pitch harmonic
h - hammer on
p - pull off
b - bend
br - bendRelease
pb - preBend
pbr - preBendRelease
brb - bendReleaseBend
\n/ - tremolo bar dip
\n - tremolo bar dive
-/n - tremolo bar Release up
/n\ - tremolo bar inverted dip
/n - tremolo bar return
-\n - tremolo bar Release down
S - shift slide
s - legato slide
/ -  slide into from below or out of upwards
\ -  slide into from above or out of downwards
~ - vibrato
W - wide vibrato
tr - trill
TP - tremolo picking
T - tapping
S - slap
P - pop
< - fade in
^ - brush up
v - brush down
Login or Register to remove this ad.