Ads

Toki no Uta (Tales from Earthsea) Guitar Tab

Submitted: Nov 15, 2013 by Basisti94

4.666665
Average: 4.7 (3 votes)
Download | Listen
Game: Tales from Earthsea
Composer(s): Tamiya Terashima
Style: Arrangement, Fingerstyle

This song is also called Song of Time

AutoScroll: Slow | Medium | Fast
                          Toki No Uta


Tales from Earthsea
Aoi Teshima
Guitar arrangement by Basisti94 (Miro Laaksonen)
14.11.2013

-------------------------
I tried to follow the piano as much as possible so in the end my 
arrangement ended looking like a mess, but due to slow tempo,
it's not nearly as hard as it looks, aside from few tricky fingerings
in latter half.
If I recall correctly, this song was used in the end credits of the movie.
-------------------------


Capo 4
Tempo ~ 64
     E  E  E  H        E     E  E  E  Q.     E  S S    E  E  E  E  Q    E  E   
E||-----------------------|-------------------------|-------------------------|
B||-----------3-----------|-----------3-------------|-------------------------|
G||-----2-----------------|-----2------------0----0-|--L--0-------------0--2--|
D||--------0--------------|--------0------------4---|--0-----0-----0----0-----|
A||-----------------------|-------------------------|--2-----2-----2----2-----|
E||--3--------------------|--3----------------------|--3--------3--3----------|


  E  S S E  S S Q    E  S S    E  E  E  E  Q    E  E   
----------------------------|-------------------------|
--0--1------0---------------|-------------------------|
--0----2------0-L----0----0-|--L--0-------------0--2--|
--0------------------0--4---|--0-----0-----0----0-----|
---------3------------------|--2-----2-----2----2-----|
--0-------------------------|--3--------3-------------|


  E  S S E  S S E  E  E  E     E  E  E  S S E  E  E  E   
----------------------------|-----------0---------------|
--0--1-3-L--3---------------|-----3--3----3-L-----------|
--------------0-0--------0--|--------4---------0-----0--|
---------0------2-----2-----|--4------------------0-----|
-------------------3--------|--2---------------2-----2--|
--0-------------------------|---------------0-----------|


  E  E  S E  S E  E  E  E     Q    E.  S S E.  E  E   
----------0----------------|-------------------------|
-----3--3----3-L--------0--|--1----0-----0-----------|
--------4------0-----2-----|--0--------2---2---0--0--|
--4------------------------|-------------------------|
--2-----2---------2--------|--3----2-----0-----------|
---------------0-----------|-------------------------|


  E  E  E  E  E  E  E  S S    E  E  E  E  Q    E  S S  
---------------------------|--------------------------|
--------0------------------|-----------0--------------|
--------0--0--0----------0-|--2-----2-----0----0----0-|
-----0--------------2--4---|-----0-----0--2-------4---|
-----------------3---------|--------------------------|
--3-----------3------------|--3-----------------------|


  E  E  E  E  Q    E  E     E  S S E  S S E  E  E  S S  
-------------------------|-----------------------------|
-------------------------|--0--1------0----------------|
--L--0-------------0--2--|--2----2------0-L-----0----0-|
--0-----0-----0----0-----|--2---------2---------0--4---|
--2-----2--2--2----2-----|---------3---------3---------|
--3--------3--3----3-----|--0--------------------------|


  E  E  E  S S Q    E  E     E  S S E  S S E  E  E  E   
--------------------------|----------------------------|
-------------3-3----------|--0--1-3-L--3------------0--|
--L--0-----2--------0--2--|--0-----------0-L-----------|
--0-----0-----------------|--0------0---------0--2-----|
--2-----2-----------------|----------------3-----------|
--3------------3-------3--|--0---------3---------------|


  E  E  S E  S E  E  E  E     E  E  S E  S E  E  E  E   
----------0----------------|----------0----------------|
-----3--3----3-L-----------|-----3--3----3-3--------0--|
--------4------0--------0--|--------4------------2-----|
--4--4---------------0-----|--4--4---------------0-----|
--2---------------2--------|--2---------------2--------|
---------------0-----------|---------------0-----------|


  Q    E.  S S E.  Q       E  E  S S S S Q    E  S S  
------------------------|----------------------------|
--1----0-----0----------|--1--3--0-----0-------------|
--0--------2---2---L----|----------2-0---2----0----0-|
--2----0----------------|--2---------------------4---|
--3----2-----0----------|--3-----2-------0-----------|
------------------------|----------------------------|


  E  E  E  E  E  S S E  E     E  S S S S S S E  S S S S E   
---------------------------|-------------------------------|
---------------------0-----|-----3-3-L----------3-3--------|
-----------0--2------------|--0--------0---0-0--------0----|
--0-----0--------0---0--0--|-----2-------2--------------0--|
--2--2-------------3-------|--0------0-------2------2------|
--3-----------3------------|-------------------------------|


  E  S S S S S S E  S S E  S S    E  S S S S S S E  S S E  E   
-------------0-----------------|------------------------------|
-----3-3-L-3---3-3-------------|-----3-3-L----------3-3----3--|
--0----------0--------0-0------|--0--------0---0-0--0---------|
---------2----------0------0---|-----2-------2-------------0--|
--3--------------3------2----2-|--0------0-------2------2-----|
-------------------------------|------------------------------|


  S S E  E  E  E.  S S S S S    E  E  E  S S S S E  E  E   
--3-2-------0--L-------------|--0--0--2--3-3-L------------|
------3--0-----------------0-|-----------------3-3--------|
-------------------------2---|---------------0------0-----|
---------0-------------2-----|---------------2------2-----|
------2-----2--0---2-4-------|--4------------3------3-----|
--0--------------------------|-------------------------3--|


  Q    E  S S Q    E  E     E  Q    E  E  E  E  E     E  E  E  S S E  E  E  E   
-------------------------|-------------------------|---------------------------|
----------1-0---------0--|-------------------------|------------------------0--|
--0----0------2----0-----|--0--2----0--L--------0--|--0----------0-2-----2-----|
--2----2------2----2-----|--2----------------0-----|--------2--4------0-----0--|
--3----3------3----3-----|--3-------------2--------|-----3---------------------|
-------------------------|-------------3-----------|--3------------3-----------|


  E  E  E  E  Q    S S S S    Q    E  S S E  E  E  E     Q    E  S S  
---------------------------|--------------------------|--------------|
---------------------------|-----------------------3--|--------------|
--0--------------------0---|--0---------0-2-----2-----|--0----0----0-|
--------2------------0---0-|----------4------4--------|----------4---|
-----3-----3--2----2-------|-------3------------------|--3-----------|
--3-----------3------------|--3-----------3-----------|--3-----------|


  E  E  Q    Q    E  E     E  S S E  S S Q    E  S S  
------------------------|----------------------------|
------------------------|--0--1------0---------------|
-----0------------0--2--|-------2-L----0-L----0----0-|
--0-----0----0----0-----|--0------0------2-------4---|
--2-----2----2----2-----|--3------3-----------3------|
--3-----3---------------|--0-------------------------|


  E  E  S S S S E  E  E  E     E  S S E  S S E  E  E  E   
----------------------------|----------------------------|
--------------3-3-----------|--0--1-3-L--3---------------|
--L--0------0------2--0--2--|--------------0-0--------0--|
----------0-----0-----0-----|--0------0------0-----2-----|
--2-----2----------------3--|--3------3------3--3--------|
--3---------3---------------|--0-------------------------|


  E  E  E  S S E  E  E  E     E  E  E  S S E  E  E  E   
-----------0---------------|-----------0---------------|
-----3--3----3-L-----------|-----3--3----3-3--------0--|
------------------0-----0--|--------4------0-----2-----|
--4-----4------------0-----|--4------------------0-----|
--2---------------2--------|--2---------------2--------|
---------------0-----------|---------------0-----------|


  Q    E.  S S E.  Q       E  E  S S S S Q    E  S S  
------------------------|----------------------------|
--1----0-----0----------|--1--3--0-----0-------------|
-----------2---2---L----|--0-------2-0---2----0----0-|
--2---------------------|--------0---------------4---|
--3----2-----0----------|--3-----2-------0-----------|
------------------------|----------------------------|


  E  E  S S E  E  S S E  E     E  S S S S S S E  S S S S S S  
----------------------------|--------------------------------|
--0---------0--1------3-----|-----3-3-L----------3-3---------|
--------0-2----0----0----0--|--0--------0---0-0--------0-----|
-----0------0-----4---------|-----2-------2--------------0---|
----------------------------|--0--------------2------2-------|
--3------------3------3-----|---------3--------------------3-|


  E  S S S S S S E  S S E  S S    E  S S S S S S E  S S S S E   
-------------0-----------------|-------------------------------|
-----3-3---3---3-3-------------|-----3-3-L----------3-3-----3--|
--0-------------------0-0------|--0--------0---0-0--------2-0--|
-------------0------0------0---|-----2-------2----------0------|
--3------3-------3------2----2-|--0------3-------2-------------|
-------------------------------|-------------------------------|


  S S E  E  E  E.  S S S S S    E  E  E  S S S S E  E  E   
--3-2-------0--L-----------5-|--0--0--2--3-3--------------|
------3--0---------------0---|-----------------3-3--------|
-----------------------2-----|---------------0------0-----|
---------0-------------------|---------------2------2-----|
------2-----2--0---2-4-------|--4------------3------3-----|
--0--------------------------|-------------------------3--|


  Q    E  S S Q    E  E     E  Q    E  E  E  E  E     E  E  E  S S E  E  E  E   
-------------------------|-------------------------|---------------------------|
----------1-0---------0--|-------------------------|------------------------0--|
--0----0------2----0-----|--0--2----0--L--------0--|--0----------0-2-----------|
--2----2------2----2-----|--2----------------0-----|--------2--4------0--4--0--|
--3----3------3----3-----|--3-------------2--------|-----3---------------------|
----------3--------------|-------------3-----------|--3------------3-----------|


  E  E  E  E  E  S S E  E     E  S S E  S S E  E  E  S S  
--------------3--2-3-L-----|--3--2-3-L--5-2--------------|
---------------------------|----------------------2--3---|
--0------------------------|-------------------2---------|
--------0-----0------0-----|--0--------------------------|
-----0-----2---------2-----|--0-------------4----------0-|
--3--------3--0---------3--|---------0-------------------|


  Q    E.  S E  S S S S S S    Q    E  E  E  S S E  E   
--3----2---0-0----------0---|--------------------------|
----------------------------|--3-------------0-0-L-----|
--0----2-----0----0---0---0-|-------0--2--2------2-----|
--0-------------0-----------|--0----------4------4-----|
-------------3------3-------|--2--------------------4--|
--3----2--------------------|-------------2------2-----|


  E  E  Q    E  E  E  E     E  E  E  E  E  E  E  E   
-------------------------|-----------2--0-----------|
--------0----------------|--L-----0-----0-----------|
-------------0-----------|-----2--------------2-----|
--1--2--4----------2-----|--0--------0-----2-----2--|
--2-------------2-----2--|--------------0-----------|
-------------0-----------|--------------------------|


  E  E  E  S S E  E  E  E     E  E  E  E  E  E  S S E   
---------------------------|-----------2--0--0---------|
--------0--0---------------|--------0-------------2-0--|
--2--0-------0-L-----------|--L--2--------------2------|
--------2------------2-----|--0--------2-----2---------|
--4---------------2--------|--------------0------------|
---------------0--------0--|---------------------------|


  E  E  E  S S S S E  E  E     Q    E  S S E  E  E  E   
-----0--2--3-3-L------------|--------------------------|
-----------------3-3--------|--1-----------------------|
--2----------------------0--|-------0----0-L-----------|
---------------0---------2--|----------4------0--------|
--2------------0------3-----|--------------------0--2--|
--------0-------------------|--------------3-----------|


  Q    E  E  E  S S E  S S    Q    E  S S E  E  E  E   
---------------------------|--------------------------|
-------------0--1------0---|--------------------0-----|
-------0--2-------2-L----0-|--L----0----0-L-----0-----|
--0----------0------0------|--0----0--4------0-----0--|
---------------------------|--------------------------|
-------2-----0-------------|--3-----------3-----------|


  Q    E  E  E  S S E  E     Q.     E  E  E  S E.     E  Q    E  E  S S S E  S  
--------------------------|--------------------0---|----------------------0----|
-------------0--1-3-L--3--|---------------3--3-----|--3-------------3-3------3-|
--2----0--2---------0-----|--0------0--------2-----|-----0----0---------2------|
--4-----------------------|--2---------4-----------|-------------4------0------|
--------------------------|--3------2--------------|-------------2-------------|
-------------0------------|------------------------|--0------------------------|


  Q    E  E  Q    S S E     Q    E  S S E  E  E  E   
-------------------------|--------------------------|
--L-------0--1----0-1-3--|--------------0-----0-----|
-------2-----0-----------|--0---------0-0-----0-----|
--0----------2----0------|----------4------0-----0--|
-------------3----2------|--0----3------------------|
--0----------------------|--------------3-----------|


  E  E  E  S S Q    S S E     Q    E  S S E  E  E  S S  
---------------------------|---------------------------|
--3--------1-0-1------3-1--|--0------------------------|
--------2------------------|-------0----0-L--0---------|
-----0--------------2------|--0-------4---0-----0------|
---------------------------|--------------0--------2-3-|
--3------------3-----------|--3------------------------|


  Q    E  E  E  S S E  S S    E  E  E  S S E  E  S S S S  
---------------------------|-------------------------3-2-|
-------------0--1------0---|-----------------------------|
--L----0--2-------2-L----0-|--L-----0----0-L--0----0-----|
--0----------0------0------|--L-----0--4-----------------|
--2----------3-------------|--------2------3-----3-------|
---------------------------|-----3-----------------------|


  E  E  E  E  E  S S E  S S    E  E  E  S S E  E  E.  T  T  
--0-------------------------|------------------------------|
--0-----------0--1------0---|------------------------------|
--------0--2-------2-L----0-|--L-----0----0----0-----------|
-----0--------0------2------|--L--------4---------4---2p-0-|
--2-----------3-------------|-----2---------0--------------|
----------------------------|------------------------------|


  E  E  E  E  E  S S E  S S    E  E  E  S S E  E  Q       W                  
-----------------0----------|--------------------------|-------------------||
--------0--1--3---------0---|--------------------------|-------------------||
-----0-------------2-L----0-|--L-----0----0-L--0-------|-------------------||
--------0------------0------|--L--2-----4---------0----|--L----------------||
--2-----------3-------------|--------2------------2----|--L----------------||
----------------------------|--------------------------|-------------------||

Aoi Teshima <3


Duration Legend
---------------
W - whole
H - half
Q - quarter
E - 8th
S - 16th
T - 32nd
X - 64th
. - note dotted
|-n-|  - n-tuplets


Tablature Legend
----------------
L - tied note
x - dead note
g - grace note
(n) - ghost note
> - accentuded note
NH - natural harmonic
AH - artificial harmonic
TH - tapped harmonic
SH - semi harmonic
PH - pitch harmonic
h - hammer on
p - pull off
b - bend
S - shift slide
s - legato slide
/ -  slide into from below or out of upwards
\ -  slide into from above or out of downwards
~ - vibrato
W - wide vibrato
tr - trill
TP - tremolo picking
T - tapping
S - slap
P - pop
< - fade in
^ - brush up
v - brush down
Login or Register to remove this ad.