The Floating Imperial City (Grand Chokmah) (Tales of the Abyss) Guitar Tab

Submitted: Mar 13, 2019 by Asch.

5
Average: 5 (2 votes)
Download | Listen
Game: Tales of the Abyss
Composer(s): Motoi Sakuraba, Shinji Tamura, Motoo Fujiwara
Style: Arrangement, Fingerstyle

AutoScroll: Slow | Medium | Fast
Tales of the Abyss
The Floating Imperial City ~Grand Chokmah~
Artist: Shinji Tamura
Transcribed and Arranged by Asch.
06/02/2010

Tempo = 120
CH #1

     ^                      ^                                                                    
     E  S S S S E  E  E     E.  E.  E  Q       E  S S S S S S S S S S    S S S S S S S S S S E   
E||----------------------|------------------|-------------------------|--------------------0-2--|
B||--2----------0--------|------------------|-------------------------|--------------0-2-4------|
G||--2------1-2----2--1--|--4---------------|-----------1-------------|----------1-2------------|
D||--2--2-4--------------|--4---2---1-------|-------2-4---4-2-1---1---|----1-2-4----------------|
A||--0-------------------|--2----------4----|-----4-------------4---2-|--4----------------------|
E||----------------------|------------------|--0----------------------|-------------------------|


  ^          ^           ^                     ^   ^               ^   ^             
  E  S S S S E  E  E     E  S E  S E  E  E     E.  E.  E  E  E     E.  E.  E  E  E   
--2--0-------0--------|--0------------------|-------------------|--5---5---4--2--0--|
-------3-2-0----2-----|--0--3-0-------------|-------------------|--3---3------------|
--2----------------2--|----------1----------|--2---2---1--------|--2---2------------|
--4-------------------|--2---------2--------|------0------4--2--|-------------------|
--5----------0--------|--2------------2-----|--0---0------------|--0---0------------|
----------------------|------------------0--|--0----------------|-------------------|


    [ A ]                                                                                
    ^                     ^         ^           ^                                        
    E.    E.  E  E  E     E  S E  S E  E  E     E.  S E  Q.        S S S S S S E  E  E   
|-------------0--------|--5--4-2--0-2--0-----|--------0---------|-----------------2--5--|
|---2-----3------3--2--|------------------3--|--2---3----0------|------------0-2--------|
|*---------------------|--2------------------|------------------|--------1-2------------|
|*---------------------|---------------------|------------------|----2-4----------------|
|---4------------------|------------0--------|--4---------------|--0--------------------|
|----------------------|---------------------|------------------|-----------------------|


  ^         ^           ^                     ^         ^           ^                     
  E  S E  S E  E  E     E  S E  S E  E  E     E  S E  S E  E  E     E  S E  S E  E  E     
--5--4------4--2--0--|--2--0---------------|--5--4-2--0-4--2--0--|--2--0----------------||
-------7--5----------|-------3-------------|------------0--------|-------3--------------||
--6------------------|----------2----------|--2------------------|--2-------2----------*||
--7------------------|--4---------4--0-----|---------------------|--4---------4--0-----*||
------------2--------|------------------0--|---------------------|------------------0---||
---------------------|---------------------|------------4--------|----------------------||


   [ B ]                                                                             
   E.    E.  E  E  E     E.  E.  E  E  E     E.  E.  E  E  E     E.  E.  E  E  E     
----------------------|-------------------|-------------------|--------------------||
---2-----0---2--0--2--|--2---0---2--0--2--|----------0--------|----------0---------||
*---------------------|-------------------|--0---2------2--0--|--0---2------2--0--*||
*---------------------|-------------------|-------------------|-------------------*||
-------------------0--|--4-------------0--|-------------------|--------------------||
---0---------0--------|--0-------0--------|--3-------------3--|--3-------------3---||


  [ C ]                                                                                
                        ^         ^           ^                                        
  E.    E.  E  E  E     E  S E  S E  E  E     E.  S E  Q.        S S S S S S E  E  E   
------------0--------|--5--4-2--0-2--0-----|--------0---------|-----------------2--5--|
--2-----3------3--2--|------------------3--|--2---3----0------|------------0-2--------|
---------------------|--2------------------|------------------|--------1-2------------|
---------------------|---------------------|------------------|----2-4----------------|
---------------------|------------0--------|--4---------------|--0--------------------|
---------------------|---------------------|------------------|-----------------------|


  ^         ^           ^                     ^         ^           ^                   
  E  S E  S E  E  E     E  S E  S E  E  E     E  S E  S E  E  E     E  S E  S E  E  E   
--5--4------4--2--0--|--2--0---------------|--5--4------4--2--0--|--2--0---------------|
-------7--5----------|-------3-------------|-------7--5----------|-------3-------------|
--6---------4--------|--2-------2----------|--6---------4--------|--2-------2----------|
--7---------6--------|--4---------4--0-----|--7---------6--------|--4---------4--0-----|
---------------------|------------------0--|---------------------|------------------0--|
---------------------|---------------------|---------------------|---------------------|


  [ D ]                                                                                
                   ^                 ^                 ^      ^                        
  Q.     Q.        H        E  E     H        E  E     Q.     Q.        Q.     Q.      
----------------|-----------------|-----------------|--0------0------|----------------|
--2------0------|-----------------|--3--------------|--0------0------|--2------0------|
--2------1------|--2--------------|--2--------------|--2------1------|--2------1------|
--2------2------|--4--------------|--0--------------|--2------2------|--2------2------|
--4------2------|--0-----------0--|--------------0--|--2-------------|---------2------|
----------------|-----------4-----|-----------4-----|----------------|----------------|


  ^                 ^                 ^      ^                          ^               
  H        E  E     H        E  E     Q.     Q.        Q.     Q.        H        E  E   
-----------------|-----------------|--0------0------|----------------|-----------------|
-----------------|--3--------------|--0------0------|--2------0------|-----------------|
--2--------------|--2--------------|--2------1------|--2------1------|--2--------1--2--|
--4--------------|--0--------------|--2------2------|--2------2------|--4--------------|
--0-----------0--|--------------0--|--2------2------|---------2------|--0--------------|
-----------4-----|-----------4-----|----------------|----------------|-----------------|


  ^                    ^        ^                            ^                 ^                    
  E  E  E  E  E  E     E  E  E  E  E  E     Q.     Q.        H        E  E     E  E   E   E  E  E   
-----------0--2--0--|--0--------0--------|----------------|-----------------|-------------0--2--0--|
--3--2--3-----------|--3--2--0--0-----0--|--2------0------|-----------------|--3--2--(3)-----------|
--2-----------------|--2--------1--2-----|--2------1------|--2--------1--2--|--2------7------------|
--0-----------------|--0--------2--------|--2------2------|--4--------------|--0-------------------|
--------------------|--------------------|---------2------|--0--------------|----------------------|
--------------------|--------------------|----------------|-----------------|----------------------|


                           [ D ' ]                                                          
  ^          ^                               ^               ^               ^      ^       
  E  E   E   E  E   E      Q.      Q.        H.              H.              Q.     Q.      
--0----------0----------|-----------------|---------------|---------------|--0------0------|
--3--2--(0)--0-----(0)--|--2-------0------|---------------|--3------------|--0------0------|
--2------4---1--2---4---|--2-------1------|--2------------|--2------------|--2------1------|
--2----------2----------|--2-------2------|--4------------|--0------------|--2------2------|
------------------------|----------2------|--0------------|---------------|--2-------------|
------------------------|-----------------|---------------|---------------|----------------|


                   ^               ^               ^                              
  Q.     Q.        H.              H.              H.              H.             
----------------|---------------|--2------------|--0------------|--L------------||
--2------0------|---------------|--3------------|--0------------|--L------------||
--2------1------|--2------------|--2------------|--2------------|--L------------||
--2------2------|--4------------|--0------------|--2------------|--L------------||
---------2------|--0------------|---------------|--2------------|--L------------||
----------------|---------------|---------------|---------------|---------------||




Duration Legend
---------------
W - whole
H - half
Q - quarter
E - 8th
S - 16th
T - 32nd
X - 64th
. - note dotted
|-n-|  - n-tuplets


Tablature Legend
----------------
L - tied note
x - dead note
g - grace note
(n) - ghost note
> - accentuded note
NH - natural harmonic
AH - artificial harmonic
TH - tapped harmonic
SH - semi harmonic
PH - pitch harmonic
h - hammer on
p - pull off
b - bend
br - bendRelease
pb - preBend
pbr - preBendRelease
brb - bendReleaseBend
\n/ - tremolo bar dip
\n - tremolo bar dive
-/n - tremolo bar Release up
/n\ - tremolo bar inverted dip
/n - tremolo bar return
-\n - tremolo bar Release down
S - shift slide
s - legato slide
/ -  slide into from below or out of upwards
\ -  slide into from above or out of downwards
~ - vibrato
W - wide vibrato
tr - trill
TP - tremolo picking
T - tapping
S - slap
P - pop
< - fade in
^ - brush up
v - brush down
Login or Register to remove this ad.