Ads

Numa Dunes (Tak and the Power of Juju) Guitar Tab

Submitted: Jul 28, 2016 by Kyle8497

0
Download | Listen
Game: Tak and the Power of Juju
Composer(s): Unknown
Style: 2 or more instruments, Transcription

AutoScroll: Slow | Medium | Fast
Song: Numa Dunes
Game: Tak and the Power of Juju
Composer(s): 
Tab creator: Kyle8497
Date created: 7/8/16


Legend:

^ - bend the string.
x - Palm mute the previous note.
\ - Slide down (to).
/ - Slide up (to).
h - Hammer-on.
p - Pull-off.
~ - Sustain/finger vibrato.

-------------------------------------------





Acoustic Lead Guitar

Part 1
e|-----------------------------------------|
B|-5~---5-6--8-6-5---5h6p5-5~--------------|
G|-----------------7-----------------------|
D|-----------------------------------------| x2
A|-----------------------------------------|
E|-----------------------------------------|

e|-7-5h7p5---------------------------------|---------------12--11^-----------12--11^-|
B|---------8--8-6-8-6h8p6-5-6-8-6-5---5-6-8|-6-5---5~----5-----------------5---------|
G|----------------------------------7------|-----7-----------------------------------|
D|-----------------------------------------|-----------------------------------------|
A|-----------------------------------------|-----------------------------------------|
E|-----------------------------------------|-----------------------------------------|





Electric Lead Guitar

Part 2			      
e|---------------------|
B|-6-5h6p5-3-1h3p1-0~--|
G|---------------------|
D|---------------------| x2
A|---------------------|       
E|---------------------|       

e|-3-1h3p1-0-----------|------------------------|
B|-----------3h5p3-0---|-0-1-3-1-0-1------------|
G|---------------------|-------------2-0-2-0----|
D|---------------------|---------------------2~-| x5
A|---------------------|------------------------|
E|---------------------|------------------------|





Rhythm Guitar

Entire Song (The measures are interchangeable)
e|---------------------|      |---------------------|
B|---------------------|      |---------------------|
G|-----------------0---|      |-----------------0---|
D|-2-2-2-0---0-2-2---2-|  or  |-22222-0---0-2-2---2-|
A|---------2-----------|      |---------2-----------|
E|---------------------|      |---------------------|

			 then

e|---------------------|      |---------------------|
B|---------------------|      |---------------------|
G|---------------------|      |---------------------|
D|-2-2-2-0---0-2-2~----|  or  |-22222-0---0-2-2~----| 
A|---------2-----------|      |---------2-----------|
E|---------------------|      |---------------------|
Login or Register to remove this ad.