Ads

Warren Report (Tactics Ogre: Let Us Cling Together) Guitar Tab

Submitted: Jan 08, 2012 by iamHoustonian

4
Average: 4 (1 vote)
Download | Listen
Game: Tactics Ogre: Let Us Cling Together
Composer(s): Hitoshi Sakimoto, Masaharu Iwata
Style: 2 or more instruments, Transcription

AutoScroll: Slow | Medium | Fast
Warren Report
Tactics Ogre 
Composers: Hitoshi Sakimoto and Masaharu Iwata
Tabbed by: iamHoustonian
Date Tabbed: 12/26/2011



Guitar I
e----------------------------------------------------------------------
B----------------------------------------------------------------------
G--------------6--5----------------------------------------------------
D-----4--6--8----------6--8----8--4--6---------------------------------
A--4--------------------------------------6--7--6--4--2----------------
E----------------------------------------------------------------------

Guitar I
e-----------------------------------------------4--4-------------------
B------------------------------5--5--4----------------7--4--5--4-------
G--------------6--5---------------------4--6----------------------4----
D-----4--6--8----------6--8--------------------------------------------
A--4-------------------------------------------------------------------
E----------------------------------------------------------------------



Guitar II                \_______
e--20-18-20-21-20-18------       \ 
B-------------------------        \
G------------------------- X 4     \
D-------------------------          \
A-------------------------           \
E-------------------------            \
                                       \
Guitar II                                X 2
e--18-16-18-19-18-16------             /
B-------------------------            /
G------------------------- X 4       /
D-------------------------          /
A-------------------------         /
E-------------------------        /    
                          _______/
                         /




Guitar III
e--20----20----20----20----18----18----18----18----
B--20----20----20----20----18----18----18----18----
G-------------------------------------------------- X 2
D--------------------------------------------------
A--------------------------------------------------
E--------------------------------------------------











Login or Register to remove this ad.

1 comment on Warren Report

very good, thanks. I'm also

very good, thanks.
I'm also taking some of the songs on guitar tactics, then I put the tabs here