Ads

Theme of the Priest (Tactics Ogre: Let Us Cling Together) Guitar Tab

Submitted: Jun 07, 2012 by Lemoncobbler

5
Average: 5 (2 votes)
Download | Listen
Game: Tactics Ogre: Let Us Cling Together
Composer(s): Hitoshi Sakimoto, Masaharu Iwata
Style: Arrangement, Fingerstyle

AutoScroll: Slow | Medium | Fast
                              Theme Of The Sibyl                                


                                                                Hitoshi Sakimoto
Tactics Ogre
Arranged by Lemoncobbler
June 5th 2012



     Q    Q    Q       Q    Q    E  E     Q    E  E  Q       Q    E  E  Q     
E||-----------------|------------------|------------------|------------------|
B||------------4----|--3---------4--3--|--2---------------|------------------|
G||-----------------|--0---------------|--0-------0--0----|----------0--1----|
D||-----------------|------------------|------------------|------------------|
A||------------1----|------------------|------------------|------------------|
E||-----------------|--0----0----0--L--|--0----0-----0----|--0----0-----0----|


  Q    Q    Q       Q    Q    E  E     Q    E  E  Q       E  E  E  E  Q     
-----------------|--0----0----0-----|--0----0--6--6----|-----5--5-----L----|
------------4----|--3---------4--3--|--2----------5----|--5-----5-----5----|
-----------------|--0---------------|--0----------0----|-------------------|
-----------------|------------------|------------------|-------------------|
-----------------|------------------|------------------|-------------------|
--0----0----0----|--0----0----0--L--|--0----0-----0----|--0-----0-----0----|


  Q    Q    Q       Q    Q    E  E       E  E  Q    Q       E  E  E  E  E  E   
--0----0---------|-------0-------3--|--3g2---------------|--------------------|
------------0----|--0---------------|----0--3-------0----|--------------------|
------------4----|--0---------------|----------2---------|--0--2-----0--------|
------------2----|--2----3----3-----|----2--L--2---------|--2-----4-----4--0--|
------------2----|--3----3----------|----2--L--2---------|--0-----2-----------|
--0----0----0----|-------1----------|----0--L------------|--------------------|


  Q    H           Q    Q    E  E       E  E  Q    Q       E  E  E  E  E  E   
--0----L--------|-------0-------3--|--3g2---------------|--------------------|
----------------|--0---------------|----0--3-------0----|--------------------|
--0----L--------|--0---------------|----------2---------|--0--2-----0--------|
--2----0--------|--2----3----3-----|----2--L--2---------|--2-----4-----4--0--|
--3----L--------|--3----3----------|----2--L--2---------|--0-----2-----------|
----------------|-------1----------|----0--L------------|--------------------|


  H.              Q    Q    Q       Q    E  E  E  E     Q    Q    E  E   
--0------------|--7--------------|--5-------3--2--3--|--0------------0--|
--0------------|------------0----|-------------0-----|------------2-----|
--0------------|-----------------|-------------------|------------------|
--2------------|-----------------|-------2-----------|------------------|
--2------------|-------7---------|-------------------|-------4----------|
--0------------|--0--------------|--3----------------|--0---------------|


  Q    Q    Q       Q    Q    Q       Q     Q    Q        Q     Q     E   E   
--5--------------|-----------------|--5----10----9----|--12----------15--14--|
-----------------|--0---------0----|------------------|--------------14------|
------------6----|-----------------|--0---------------|----------------------|
-----------------|-------2---------|------------------|--------11------------|
-------4---------|-----------------|--------7---------|---0------------------|
--0--------------|--0--------------|------------------|----------------------|


   Q     Q    Q       E  E  E  E  E  E     E  E  E  E  E  E   
--12---------------|--------0--------3--|--2-----------------|
--------10---------|--0-----------------|--0--3--------0-----|
--------------4----|--0-----------------|--------2-----------|
--------------2----|--------------3-----|-----------2-----2--|
---0---------------|-----3-----3--------|--------------------|
-------------------|--------1-----------|--0-----------------|


  E  E  E  E  E  E     E  E  E  E  E  E     E  E  E  E  E  E   
--------------------|--------------------|--------0--------3--|
--------------------|--------------------|--0-----------------|
--0--2-----0--------|--------------------|--0-----------------|
--------4-----4--0--|--2-----0-----0-----|--------------3-----|
--0-----------------|--2--2-----2-----2--|-----3-----3--------|
--------------------|--0-----------------|--------1-----------|


  E  E   E  E  E  E     E  E  E  E  E  E     E  E  E  E  E  E   
--2--3---5-----------|--2--3--5-----------|--0-----------------|
-----3s--5-----3-----|--------0--3--0--3--|--------------------|
---------------------|--------------------|--------------------|
------------2-----2--|--------------------|-----2-----2-----2--|
---------------------|--0-----------------|--4-----------4-----|
--0------------------|--------------------|--------4-----------|


  E  E  E  E  E  E     E  E  E  E  E  E     E  E  E  E  Q     
--0--------------L--|--0--------L--2--0--|-------------------|
--------------------|--------------------|--4-----------L----|
--------------------|--------------------|-------------------|
-----2-----2-----2--|-----2-----2--------|-------------------|
--3-----------3-----|--2-----------------|--3--2--0----------|
--------3-----------|--------2-----------|-----------3--2----|


  E  E  E  E  E  E     E  E  E  E  E  E     E  E  E  E  E  E   
--------------3-----|--2--L--3--L--5--L--|--7--------L--------|
--------------------|--------3-----3-----|--------------8--L--|
-----------0-----0--|-----2-----2-----2--|--------0-----------|
--------2-----------|--0--------------L--|--------------------|
-----2--------------|--------------------|-----7-----7-----7--|
--0--------------L--|--------------------|--8--------------L--|


  E  E  E  E  E  E     E  E  E  E  E  E     E  E  E  E  E  E   
--------------------|--------------3--L--|--2--------------L--|
--3--------------L--|--1--L--3--L--------|--------------3--L--|
--------------------|--------2--------0--|--------4-----------|
--------2-----0-----|-----2-----2--------|-----4-----4-----4--|
-----0-----0-----2--|--0--------------L--|--2--------------L--|
--2--------------L--|--------------------|--------------------|


  E  E  E  E  E  E     E  E  E  E  E  E     E  E  E  E  E  E   
--0--L--2--L--3--L--|--5--L--7--------L--|--------------3-----|
--------------------|-----0-----0--------|--------------------|
--------0-----0-----|--------------0-----|--------------------|
-----2-----2-----2--|-----------------1--|--------2-----2-----|
--3--------------L--|--------------------|-----2-----2-----2--|
--------------------|--7--------------L--|--0--------------L--|


  E  E  E  E  E  E     E  E  E  E  E  E     E  E  E  E  E  E   
--2--L--3--L--5--L--|--7--------L--3--L--|--------------------|
--------------------|--------------------|--3--------------L--|
-----------4--------|--------0-----0-----|--------------------|
-----4-----------4--|-----2-----2-----2--|--------0-----0-----|
--2--------------L--|--3--------------L--|-----2-----2-----2--|
--------------------|--------------------|--3--L--3--L--3-----|


                                   v                          
  E  E  E  E  E  E     E  E  E  E  Q       E  E  E  E  E  E   
--0--------L--7--L--|--0--------L-------|--0--------------L--|
--------------------|--------------3----|--------------------|
--------2-----------|--------4-----2----|--2-----------------|
-----2-----2-----7--|-----4-----4-------|--------2-----4-----|
--0--L--0--L--0--L--|--2-----2-----0----|-----2-----2-----2--|
--------------------|-------------------|--0-----0-----0-----|


  3                  
  W.                 
-------------------||
-------------------||
--1----------------||
--2----------------||
--2----------------||
--0----------------||




Duration Legend
---------------
W - whole
H - half
Q - quarter
E - 8th
S - 16th
T - 32nd
X - 64th
. - note dotted
|-n-|  - n-tuplets


Tablature Legend
----------------
L - tied note
x - dead note
g - grace note
(n) - ghost note
> - accentuded note
NH - natural harmonic
AH - artificial harmonic
TH - tapped harmonic
SH - semi harmonic
PH - pitch harmonic
h - hammer on
p - pull off
b - bend
br - bendRelease
pb - preBend
pbr - preBendRelease
brb - bendReleaseBend
\n/ - tremolo bar dip
\n - tremolo bar dive
-/n - tremolo bar Release up
/n\ - tremolo bar inverted dip
/n - tremolo bar return
-\n - tremolo bar Release down
S - shift slide
s - legato slide
/ -  slide into from below or out of upwards
\ -  slide into from above or out of downwards
~ - vibrato
W - wide vibrato
tr - trill
TP - tremolo picking
T - tapping
S - slap
P - pop
< - fade in
^ - brush up
v - brush down
Login or Register to remove this ad.