Music Box Theme (Tactics Ogre: Let Us Cling Together) Guitar Tab

Submitted: May 20, 2012 by Lemoncobbler

5
Average: 5 (1 vote)
Download | Listen
Game: Tactics Ogre: Let Us Cling Together
Composer(s): Hitoshi Sakimoto, Masaharu Iwata
Style: Arrangement, Fingerstyle

This song is also called Looking Back

AutoScroll: Slow | Medium | Fast
                                Music Box Theme      
This song is also known as Looking Back
Composed by Masaharu Iwata
Arranged by Lemoncobbler
5/15/2012                           


Track 1
     Q    Q    Q    Q       Q    Q    Q    Q       Q    Q    Q    Q     
E||-------0--------------|----------------------|----------------------|
B||--3---------3----1----|--0----1----0---------|----------------------|
G||----------------------|-----------------2----|--0----2----0---------|
D||------------0---------|----------------------|-----------------4----|
A||----------------------|------------2---------|------------2---------|
D||--5----0--------------|--2----0--------------|--5----0--------------|


  Q    Q    Q    Q       Q    Q    Q    Q       Q    Q    Q    Q     
----------------------|----------------------|------------0---------|
-----------------1----|--0---------1---------|--3---------0---------|
--0---------2---------|------------0---------|-------0--------------|
-------0--------------|-------0--------------|-----------------0----|
--3-------------------|--2--------------2----|----------------------|
----------------------|----------------------|--0-------------------|


                                                v                    
  Q    Q    Q    Q       Q    Q    Q    Q       Q    Q    Q    Q     
-------0--------------|----------------------|--3---------2----0----|
--3---------3----1----|--0---------3---------|--0-------------------|
----------------------|-------2----0---------|--0---------0---------|
-------4--------------|-------0---------4----|--2----2--------------|
------------0---------|--2-------------------|--3-------------------|
--0-------------------|----------------------|----------------------|


  Q    Q    Q    Q       Q    Q    Q    Q       Q    Q    Q    Q     
------------0---------|----------------------|----------------------|
--3--------------0----|--3---------1---------|--0---------1---------|
----------------------|-------0---------0----|-------0--------------|
-------0----4---------|----------------------|------------2---------|
--2-------------------|----------------------|--3-------------------|
----------------------|--5----0--------------|-----------------2----|


  Q    Q    Q    Q       Q    Q    Q    Q       Q    Q    Q    Q     
----------------------|----------------------|----------------------|
--0-------------------|----------------------|----------------------|
------------2---------|--0-------------------|--0----0--------------|
-------0---------0----|--0---------4---------|------------0---------|
----------------------|-------0--------------|----------------------|
--5-------------------|-----------------4----|--5--------------4----|


  W                                      
-------------------|-------------------||
-------------------|-------------------||
--0----------------|-------------------||
-------------------|-------------------||
-------------------|-------------------||
--5----------------|-------------------||




Duration Legend
---------------
W - whole
H - half
Q - quarter
E - 8th
S - 16th
T - 32nd
X - 64th
. - note dotted
|-n-|  - n-tuplets


Tablature Legend
----------------
L - tied note
x - dead note
g - grace note
(n) - ghost note
> - accentuded note
NH - natural harmonic
AH - artificial harmonic
TH - tapped harmonic
SH - semi harmonic
PH - pitch harmonic
h - hammer on
p - pull off
b - bend
br - bendRelease
pb - preBend
pbr - preBendRelease
brb - bendReleaseBend
\n/ - tremolo bar dip
\n - tremolo bar dive
-/n - tremolo bar Release up
/n\ - tremolo bar inverted dip
/n - tremolo bar return
-\n - tremolo bar Release down
S - shift slide
s - legato slide
/ -  slide into from below or out of upwards
\ -  slide into from above or out of downwards
~ - vibrato
W - wide vibrato
tr - trill
TP - tremolo picking
T - tapping
S - slap
P - pop
< - fade in
^ - brush up
v - brush down
Login or Register to remove this ad.