Gametabs
Home
Tabs
Random

Main Theme

Average rating: No ratings

Composer:

Tabber:

Style:

Instrument:

Created: April 27, 2009 at 12:00 AM

                    Zak McKracken and the Alien Mindbenders - Main Theme BASS TAB
                             Song by Matthew Kane

                    Tabbed by auriplane ([email protected])
                               On April 27, 2009

This song is mostly fine on four-string bass, but the end goes off the
upper range.  So, I moved parts of that down an octave.  I'll put a six
string version of the end at the bottom, too, in the original octave.

Four-string bass, standard tuning.  Though um, the videos on youtube seem
to be a semitone flat.  So maybe tune to Eb Ab Db Gb.  :-)

G |----------------|----------------|----------------|----------------|
D |----------------|----------------|----------------|----------------|
A |----------------|----------------|----------------|----------------|
E |5-5-5-5---------|------------3-3-|5-5-5-5---------|------------3-3-|

G |----------------|----------------|----------------|----------------|
D |----------------|----------------|----------------|----------------|
A |----------------|----------------|----------------|--------------2-|
E |5-5-5-5---------|------------3-3-|5-5-5-5---------|------------3---|

G |----------------|----------------|----------------|----------------|
D |----------------|----------------|----------------|------3-2-2-----|
A |----------------|3-3-3-3-5-5-----|----------------|3-3-3-----------|
E |5-5-5-5-5-5-5-5-|------------0-3-|5-5-5-5-5-5-5-5-|------------0-3-|

G |----------------|----------------|----------------|------------4---|
D |----------------|3-3-3-2-0-0-2---|----------------|----2-3-5-------|
A |----------------|----------------|------------2-2-|3-5-------3---5-|
E |5-5-5-5-5-5-5-5-|--------------3-|5-5-5-5-5-5-----|----------------|

G |----------------|----------------|----------------|----------------| \
D |----------------|----------------|----------------|------3-2-2-----|  |
A |----------------|3-3-3-3-5-5-----|----------------|3-3-3-----------|  |
E |5-5-5-5-5-5-5-5-|------------0-3-|5-5-5-5-5-5-5-5-|------------0-3-|  |
                                                                         | x2
G |----------------|----------------|----------------|----------------|  |
D |----------------|3-3-3-2-----2---|----------------|----------------|  |
A |----------------|--------5-5-----|------------2-2-|3-3-3-3-5-5-----|  |
E |5-5-5-5-5-5-5-5-|--------------3-|5-5-5-5-5-5-----|------------0-3-| /

G |----------------|----------------|----------------|--------5-4-2-4-|
D |----------------|------------2---|--------------2-|--2-------------|
A |----------------|----------5---3-|----------2-3---|----------------|
E |5---5---5-3-1-0-|--0-------------|5---5---5-------|----------------|

G |--------5-4-2-0-|----------------|
D |----------------|----------------|
A |----------------|--------3-2-0-2-|
E |5---5-----------|5---5-----------|

    Part B

G |--------2-2-2-2-|--------2-2-2-2-|------------2-4-|-------10-9-7-9-|
D |----------------|----------------|--------3-5-----|----------------|
A |----------------|----------------|----------------|3---3-----------|
E |5---5-----------|5---5-----------|1---1-----------|----------------|

G |-------10-7---7-|--------7-5-4---|--------5-4-2-0-|----------------|
D |------------10--|--------------5-|----------------|----------------|
A |7---7-----------|7---7-----------|----------------|----------------|
E |----------------|----------------|5---5-----------|5---5---5---3-3-|

G |----------------|----------------|----------------|----------------|
D |----------------|----------------|----------------|----------------|
A |----------------|----------------|----------------|----------------|
E |5-5-5-5---------|------------3-3-|5-5-5-5---------|------------3-3-|

G |----------------|----------------|----------------|----------------|
D |----------------|----------------|----------------|3-2-3-2---------|
A |----------------|3-3-3-3-5-5-----|------------2-2-|--------5-5-3---|
E |5-5-5-5-5-5-5-5-|------------0-3-|5-5-5-5-5-5-----|--------------3-|

G |----------------|----------------|----------------|----------------| \
D |----------------|----------------|----------------|------3-2-2-----|  |
A |----------------|3-3-3-3-5-5-----|----------------|3-3-3-----------|  |
E |5-5-5-5-5-5-5-5-|------------0-3-|5-5-5-5-5-5-5-5-|------------0-3-|  |
                                                                         | x2
G |----------------|----------------|----------------|----------------|  |
D |----------------|3-3-3-2-----2---|----------------|----------------|  |
A |----------------|--------5-5-----|------------2-2-|3-3-3-3-5-5-----|  |
E |5-5-5-5-5-5-5-5-|--------------3-|5-5-5-5-5-5-----|------------0-3-| /

    Part C

G |---------------------2--|---------9-----------14-|------------------12-14-|
D |------2--3-----2--5-----|---7--10-------12-14----|------14-15-12-14-------|
A |---3--------5-----------|8-----------12----------|12-15-------------------|
E |5-----------------------|------------------------|------------------------|
                                                                             
G |---------9-----------14-|------9-----7-----12----|------17----14----21----|
D |---7--10-------12-14----|7-----------------------|15-------14----------19-|
A |8-----------12----------|---------8-----7-----12-|---12----------17-------|
E |------------------------|---8--------------------|------------------------|

G |------------------------|------------------------|------------------------|
D |------------------------|------------------------|------------------------|
A |------------------------|------------------------|------------------------|
E |------------------------|------------------------|5--5--5--5--------------|


    Part C - Six-string version

C |------------------------|------------------------|------------------------|
G |---------------------2--|---------9-----------14-|------------------12-14-|
D |------2--3-----2--5-----|---7--10-------12-14----|------14-15-12-14-------|
A |---3--------5-----------|8-----------12----------|12-15-------------------|
E |5-----------------------|------------------------|------------------------|
B |------------------------|------------------------|------------------------|
                                                                             
C |---------16----------21-|------------------------|------12----------16----|
G |---14-17-------19-21----|------------------12----|------------14-------14-|
D |15----------19----------|------14----14----------|15-------14----12-------|
A |------------------------|12-------------------12-|---12-------------------|
E |------------------------|---------13----14-------|------------------------|
B |------------------------|---13-------------------|------------------------|

C |------------------------|------------------------|------------------------|
G |------------------------|------------------------|------------------------|
D |------------------------|------------------------|------------------------|
A |------------------------|------------------------|------------------------|
E |------------------------|------------------------|5--5--5--5--------------|
B |------------------------|------------------------|------------------------|

        
Comments

No comments yet