Gametabs
Home
Tabs
Random

Main Menu

Average rating: 4.667

3 ratings

Composer:

Tabber:

Style:

Instrument:

Created: June 19, 2013 at 12:00 AM

            Main Menu Theme
The Binding Of Isaac
Original song by Danny Baranowsky
Arrangement & tab by Cleseph
13/06/2013

So, TBOI is one of my favorite games ever, and it's OST is just awesome.

There's not much sheet music or tabs for it on the web, so I humbly post my 
personal arrangement. I wrote it by ear so it's clearly not perfect. 

I just wanna point out that my arrangement is in Am (in the theme and bridge), 
but the original song is in Gm. I wrote it this way, because the Theme part was 
too tricky in Gm. (so if you absolutely wanna play in the original key, tune
your strings down like this : DGCFAD)

NOTE : the "p" means "pull-off"


Intro

e|----------------------------------------------------------------
B|----------------------------------------------------------------
G|-7-----7-----7---7-----7-----7---7-----7-----7---7-------7------
D|----------------------------------------------------------------
A|-5-5-5-5-5-5-5-5------------------------------------------------
E|-----------------8-8-8-8-8-8-8-8-7-7-7-7-7-7-7-7-6-6-6-6-5-5-5-5

Tip : Try to use palm mute on the repetitive bass line

 |----------------------------------------------------------------
 |----------------------------------------------------------------
 |-7-----7---------9-----9-----10--7-----7---------7---9p7-6------
 |-----7---------------7---------------7--------------------------
 |-5-5------------------------------------------------------------
 |-----------------8-8-------------7-7-------------6-------5------


Theme


 |---------------------------------0------------------------------
 |-------1---------1-0-1-3-----------------3---1------0--1-3---1--
 |-2-0-2-----------0-----------2-------------------2--------------
 |----------------------------------------------------------------
 |-0--------------------------------------------------------------
 |-----------------3---------------2---------------1-------0------


 |----------------------------------------------------------------
 |-------------------------------------------------------------3--
 |-2-------------------------------2-------------------------2----
 |-----------------6-----------------------------------3---0------
 |-0-------------------------------0-----------------3------------
 |-----------------4-------------------------------1--------------


Bridge


 |-----------------0---------------1-----------------------0------
 |-------------------------3-----------------------3--------------
 |-2--------------------------------------------------------------
 |----------------------------------------------------------------
 |-0---------------3----------------------------------------------
 |---------------------------------3---------------3--------------


 |-------------------------0-------1-----------------------8------
 |-2---------------3-------------------------------8--------------
 |----------------------------------------------------------------
 |----------------------------------------------------------------
 |-0---------------3----------------------------------------------
 |---------------------------------3------------------------------

The time signature may be a bit tricky to learn, so I higly recommend to listen the 
original theme to get the timing.
I'll try to post more Isaac tunes!
        
Comments

@Cleseph (June 24, 2013 at 9:03 PM)

Hey! (I'm the guy who wrote the tab)

I recorded myself playing the arrangement and put it up on youtube!

Here it is : http://www.youtube.com/watch?v=P9CHJuYZ44I

Hope that'll help!