Gametabs
Home
Tabs
Random

Underwater

Average rating: 5.000

2 ratings

Composer:

Tabber:

Style:

Instrument:

Created: May 19, 2011 at 12:00 AM

            Like the one of SamBeckett94 only that this one is an octave higher. 

If you like you could play this with an 
Electric/Acoustic Guitar it sounds better for me.

The bass is the same*


Music by Koji Kondo



                Super Mario Bros.                                          Water Theme                           


Main
     Q    Q    Q       Q    Q    Q       E  E  E.  S E.  S  
E||-------0----2----|--3----5----6----|--7--7--7-----7-----|
B||--3--------------|-----------------|--------------------|
G||-----------------|-----------------|--------------------|
D||-----------------|-----------------|--------------------|
A||-----------------|-----------------|--------------------|
E||-----------------|-----------------|--------------------|


  H        E  E      H.               H.               H.            
--7--------------|--12------------|--11------------|--12------------|
--------------8--|----------------|----------------|----------------|
-----------------|----------------|----------------|----------------|
-----------------|----------------|----------------|----------------|
-----------------|----------------|----------------|----------------|
-----------------|----------------|----------------|----------------|


  E   E   E   E   E   E      H.               H         Q     
---------------------10--|--12------------|--11--------13----|
---------10--12--13------|----------------|------------------|
-----12------------------|----------------|------------------|
-------------------------|----------------|------------------|
-------------------------|----------------|------------------|
-------------------------|----------------|------------------|


   H.              H        E   E      H.              H.            
--12------------|------------------|--10------------|--9------------|
----------------|------------------|----------------|---------------|
----------------|--------------12--|----------------|---------------|
----------------|------------------|----------------|---------------|
----------------|------------------|----------------|---------------|
----------------|------------------|----------------|---------------|


   H.              E  E   E  E  E  E      H.              H         Q     
--10------------|------------7--8--9--|--10------------|-----------13----|
----------------|-----8--10-----------|----------------|--8--------------|
----------------|---------------------|----------------|-----------------|
----------------|---------------------|----------------|-----------------|
----------------|---------------------|----------------|-----------------|
----------------|---------------------|----------------|-----------------|


   H.              H        E   E      H.               H.            
--12------------|------------------|--15------------|--15------------|
----------------|------------------|----------------|----------------|
----------------|--------------12--|----------------|----------------|
----------------|------------------|----------------|----------------|
----------------|------------------|----------------|----------------|
----------------|------------------|----------------|----------------|


   H.               Q     Q    E   E      H.               H.            
--15------------|--15----17-------15--|--13------------|--13------------|
----------------|---------------------|----------------|----------------|
----------------|---------------------|----------------|----------------|
----------------|---------------------|----------------|----------------|
----------------|---------------------|----------------|----------------|
----------------|---------------------|----------------|----------------|


   H.               Q     Q    E   E      H.            
--13------------|--13----15-------13--|--12------------|
----------------|---------------------|----------------|
----------------|---------------------|----------------|
----------------|---------------------|----------------|
----------------|---------------------|----------------|
----------------|---------------------|----------------|


   Q     Q     Q        E   E   Q.      E      H.             
--------------13----|--12--12--12----------|----------------||
--10----12----------|------------------12--|--13------------||
--------------------|----------------------|----------------||
--------------------|----------------------|----------------||
--------------------|----------------------|----------------||
--------------------|----------------------|----------------||



                           


Harmony
     Q    Q    Q       Q    Q    Q       E  E  Q    Q       H        Q     
E||-----------------|-----------------|-------------0----|--1-------------|
B||--3----2----1----|--0----1----2----|--3--3--3---------|----------------|
G||-----------------|-----------------|------------------|----------------|
D||-----------------|-----------------|------------------|----------------|
A||-----------------|-----------------|------------------|----------------|
E||-----------------|-----------------|------------------|----------------|


  H.              H.              H.              H.            
--3------------|--2------------|--3------------|---------------|
---------------|---------------|---------------|---------------|
---------------|---------------|---------------|---------------|
---------------|---------------|---------------|---------------|
---------------|---------------|---------------|---------------|
---------------|---------------|---------------|---------------|


  H.              H        Q       H.              H.            
--3------------|--2--------5----|--3------------|---------------|
---------------|----------------|---------------|---------------|
---------------|----------------|---------------|---------------|
---------------|----------------|---------------|---------------|
---------------|----------------|---------------|---------------|
---------------|----------------|---------------|---------------|


  H.              H.              H.              H.            
--1------------|--0------------|--1------------|---------------|
---------------|---------------|---------------|---------------|
---------------|---------------|---------------|---------------|
---------------|---------------|---------------|---------------|
---------------|---------------|---------------|---------------|
---------------|---------------|---------------|---------------|


  H.              H        Q       H.              H.            
--1------------|-----------5----|--3------------|---------------|
---------------|--0-------------|---------------|---------------|
---------------|----------------|---------------|---------------|
---------------|----------------|---------------|---------------|
---------------|----------------|---------------|---------------|
---------------|----------------|---------------|---------------|


   H.               H.              H.              H.            
--12------------|--10------------|--9------------|---------------|
----------------|----------------|---------------|---------------|
----------------|----------------|---------------|---------------|
----------------|----------------|---------------|---------------|
----------------|----------------|---------------|---------------|
----------------|----------------|---------------|---------------|


   H.              H.              H.              H.            
--10------------|--9------------|--8------------|---------------|
----------------|---------------|---------------|---------------|
----------------|---------------|---------------|---------------|
----------------|---------------|---------------|---------------|
----------------|---------------|---------------|---------------|
----------------|---------------|---------------|---------------|


  H.              Q    Q    Q       E  E  Q    E  E     H.             
---------------|--1----3----7----|--7--7--7----------|---------------||
--1------------|-----------------|----------------6--|--5------------||
---------------|-----------------|-------------------|---------------||
---------------|-----------------|-------------------|---------------||
---------------|-----------------|-------------------|---------------||
---------------|-----------------|-------------------|---------------||






Bass* 
     H.              H.              H        Q       H.            
G||---------------|---------------|-----------4----|--4------------|
D||---------------|---------------|----------------|---------------|
A||---------------|---------------|----------------|---------------|
E||---------------|---------------|----------------|---------------|


  Q    Q    Q       Q    Q    Q       Q    Q    Q       Q    Q    Q     
-------4----9----|-------4----8----|------------9----|-------4----9----|
--2--------------|-----------------|-------9---------|--6--------------|
-----------------|--6--------------|--7--------------|-----------------|
-----------------|-----------------|-----------------|-----------------|


  Q    Q    Q       Q    Q    Q       Q    Q    Q       Q    Q    Q     
------------9----|-------4----8----|------------9----|-------4----9----|
-------9---------|-----------------|-------9---------|--6--------------|
--7--------------|--6--------------|--7--------------|-----------------|
-----------------|-----------------|-----------------|-----------------|


  Q    Q    Q       Q    Q    Q       Q    Q    Q       Q    Q    Q     
------------8----|------------7----|------------8----|-------4----8----|
-------9---------|-------8---------|-------9---------|-----------------|
--9--------------|--8--------------|--9--------------|--6--------------|
-----------------|-----------------|-----------------|-----------------|


  Q    Q    Q       Q    Q    Q       Q    Q    Q       Q    Q    Q     
-------4----8----|-------4----8----|------------9----|------------9----|
--4--------------|-----------------|-------9---------|-------9---------|
-----------------|--6--------------|--7--------------|-----------------|
-----------------|-----------------|-----------------|--7--------------|


  Q    Q     Q        Q    Q     Q        Q    Q     Q     
------------13----|-------------11----|-------------10----|
-------9----------|--------9----------|--------9----------|
--7---------------|-------------------|-------------------|
------------------|--11---------------|--10---------------|


  Q    Q     Q       Q     Q     Q        Q     Q     Q     
------------13----|-------------14----|--------------14----|
-------9----------|-------11----------|--------11----------|
--8---------------|--9----------------|--------------------|
------------------|-------------------|--13----------------|


   Q     Q     Q        Q    Q     Q       Q     Q     Q     
--------------14----|-------------14----|-------------13----|
--------11----------|--------9----------|-------------------|
--------------------|-------------------|-------14----------|
--12----------------|--11---------------|--0----------------|


  Q    Q    Q       E  E  Q    E  E     H.             
-----------------|-------------------|---------------||
-------9----9----|--7--7--7----------|---------------||
-----------------|----------------6--|--7------------||
--7--------------|-------------------|---------------||
        
Comments

No comments yet