Gametabs
Home
Tabs
Random

Aquarium Park Act 1

Average rating: 5.000

2 ratings

Composer:

Tabber:

Style:

Instrument:

Created: October 14, 2011 at 12:00 AM

            Aquarium Park
~Sonic Colors~
Composed by Tomoya Ohtani
 Tabbed by Angel Long

  Intro
E---------------------------------
B---------------------------------
G-2-2-2--3-3-3--2-2-2--3-3-3------
D---------------------------------
A---------------------------------
E--------------------------------- x2


E-3-5-3-----3-5-3-----------3-5---
B-------6-3-------6-3-1-3-6-----3-
G---------------------------------
D---------------------------------
A---------------------------------
E--------------------------------- x4


E---------------------------------
B---------------------------------
G-2----0-2-3--2----0-2-3----------
D----3-----------3----------------
A---------------------------------
E--------------------------------- x2


E-------0-1--------------0-1------
B-----------1----------------1----
G---2-3-------2-3----2-3-------2-3
D-3----------------3--------------
A---------------------------------
E---------------------------------


E-5-6-5-------5-6-5-----5-6-5-----
B-------6-----------6---------6---
G---------5-5---------5---------5-
D---------------------------------
A---------------------------------
E---------------------------------

E----------------5-6-5-------5-6--
B----------------------6----------
G-5--------5--10---------5-5------
D----8-7-8------------------------
A---------------------------------
E---------------------------------


E-5-----5-6-5------------------------
B---6---------6----------------------
G-----5---------5-5-------5-10-9-5-7-
D-------------------8-7-8------------
A------------------------------------
E------------------------------------

            ~Instrumental~


E-3-5-3-----3-5-3-----------3-5---
B-------6-3-------6-3-1-3-6-----3-
G---------------------------------
D---------------------------------
A---------------------------------
E--------------------------------- x4


E---5-3-1-0-1--0--------0-1-3-1---
B----------------3-1-3------------
G-2-------------------------------
D---------------------------------
A---------------------------------
E---------------------------------


E---5--3-1-0-1-0--------0-1-3-1---
B----------------3-1-3------------
G-2-----------------------------2-
D---------------------------------
A---------------------------------
E---------------------------------

E-3-5-3-----3-5-3-----------3-5---
B-------6-3-------6-3-1-3-6-----3-
G---------------------------------
D---------------------------------
A---------------------------------
E--------------------------------- x4

        
Comments

No comments yet