Gametabs
Home
Tabs
Random

Wareta Ringo

Average rating: 4.000

2 ratings

Composer:

Tabber:

Style:

Instrument:

Created: August 08, 2013 at 12:00 AM

            Wareta Ringo (Ending)
Shinsekai Yori
Composer : Ozaki Chikara
Tabber   : Schin
Date     : 07/08/2013
Tempo    : 120

Legend
L - tied note
h - hammer on/pull off

Check the zip folder above for the other instruments.

e||------3--3--3--3----|--3-----3-----3--------------------2----------------|
B||------3L-3L-3L-3----|--3-----3--------3-----------3----------------------|
G||--------------------|--------------------0-----------2-------------------|
D||------2L-2L-2L-2----|--2-----2-----------------0-------------------------|
A||--------------------|----------------------------------------------------|
E||--------------------|----------------------------------------------------|


e--------------------------0-----------------------------------------0----------
B--3-----------3-----------------3-----------------------0----------------------
G--2-----------2-----------------------0-----------------------0----------------
D-------------------------------------------------------------------------------
A--2-----------2-----------2-----------------------3----------------------------
E-------------------------------------------------------------------------------


e------------3--3----|
B------------3-------|
G--------------------|
D------------2-------|
A--------------------|
E--------------------|


e--3-----------3-----------3-----------------------------------------2----------
B--3-----------3-----------------3-----------------------3----------------------
G--------------------------------------0-----------------------2----------------
D--2-----------2-----------------------------------0----------------------------
A-------------------------------------------------------------------------------
E-------------------------------------------------------------------------------


e--------------------|--------------0--------------------0----------------|
B------------3--3----|--3-----3--------3-----------0----------------------|
G------------2L-2----|--2-----2-----------0-----------0-------------------|
D--------------------|----------------------------------------------------|
A------------2L-2----|--2-----2-----2-----------3-------------------------|
E--------------------|----------------------------------------------------|


e--3-----3-----3--------------------2----------------|
B--3-----3--------3-----------3----------------------|
G--------------------0-----------2-------------------|
D--2-----2-----------------0-------------------------|
A----------------------------------------------------|
E----------------------------------------------------|


e--------------------------0-----------------------------------------0----------
B--3-----------3-----------------3-----------------------0----------------------
G--2-----------2-----------------------0-----------------------0----------------
D-------------------------------------------------------------------------------
A--2-----------2-----------2-----------------------3----------------------------
E-------------------------------------------------------------------------------


e------------3--3----|--3-----3-----3--------------------2----------------|
B------------3-------|--3-----3--------3-----------3----------------------|
G--------------------|--------------------0-----------2-------------------|
D------------2-------|--2-----2-----------------0-------------------------|
A--------------------|----------------------------------------------------|
E--------------------|----------------------------------------------------|


e--------------------------0-----------------------------------------0----------
B--3-----------3-----------------3-----------------------0----------------------
G--2-----------2-----------------------0-----------------------0L----0----------
D-------------------------------------------------------------------------------
A--2-----------2-----------2-----------------------3----------------------------
E-------------------------------------------------------------------------------


e------3--3--3--3----|
B------3L-3L-3L-3----|
G--------------------|
D------2L-2L-2L-2----|
A--------------------|
E--------------------|


e--3-----------3-----------3-----------------------------------------2----------
B--3-----------3-----------------3-----------------------3----------------------
G--------------------------------------0-----------------------2----------------
D--2-----------2-----------------------------------0----------------------------
A-------------------------------------------------------------------------------
E-------------------------------------------------------------------------------


e--------------------|
B------3--3--3--3----|
G------2L-2L-2L-2----|
D--------------------|
A------2L-2L-2L-2----|
E--------------------|


e--------------------------0-----------------------------------------0----------
B--3-----------3-----------------3-----------------------0----------------------
G--2-----------2-----------------------0-----------------------0----------------
D-------------------------------------------------------------------------------
A--2-----------2-----------2-----------------------3----------------------------
E-------------------------------------------------------------------------------


e------------3--3----|--3-----3-----3--------------------2----------------|
B------------3-------|--3-----3--------3-----------3----------------------|
G--------------------|--------------------0-----------2-------------------|
D------------2-------|--2-----2-----------------0-------------------------|
A--------------------|----------------------------------------------------|
E--------------------|----------------------------------------------------|


e--------------0--------------------0----------------|
B--3-----3--------3-----------0----------------------|
G--2-----2-----------0-----------0-------------------|
D----------------------------------------------------|
A--2-----2-----2-----------3-------------------------|
E----------------------------------------------------|


e--------------------------------0-------------------|
B--0-----------------------------0-------------------|
G-----------0--------2-------------------------------|
D----------------------------------------------------|
A--0-------------------------------------------------|
E----------------------------------------------------| (x2)


e--------------------------------0-------------------|
B--0-----------------------------0-------------------|
G-----------0--------2-------------------------------|
D----------------------------------------------------|
A--3-------------------------------------------------|
E----------------------------------------------------| (x2)


e--------------------------------0-------------------|
B--0-----------------------------0-------------------|
G-----------0--------2-------------------------------|
D----------------------------------------------------|
A--0-------------------------------------------------|
E----------------------------------------------------| (x2)


e|-------|
B|--1----|
G|--0----|
D|--3----|
A|-------|
E|-------|


e--0----------------------------------------------------------------------------
B--1----------------------------------------------------------------------------
G--0----------------------------------------------------------------------------
D--3----------------------------------------------------------------------------
A--0----------------------------------------------------------------------------
E-------------------------------------------------------------------------------


e---------------------------------------------------------------------------|
B---------------------------------------------------------------------------|
G-4h----2h----0-------------------------------------------------------------|
D-------------------4h----2h----0-----------------------x--------0----------|
A-------------------------------------2h-------3----------------------------|
E---------------------------------------------------------------------------|


e--------------------------------------0-------------|
B--------------------------------------------3-------|
G-----------0--------------------0-------------------|
D-----4-----------4-----4----------------------------|
A--3-------------------------------------------------|
E----------------------------------------------------|


e--------------------------------------0-------------|
B--------------------------------------------3-------|
G--0-----------0-----------------0-------------------|
D--------4--------4--------4-------------------------|
A----------------------------------------------------|
E----------------------------------------------------|


e--------------------------------------0-------------|
B--------------------------------------------3-------|
G--------------0-----------------0-------------------|
D--------4--------4--------4-------------------------|
A----------------------------------------------------|
E--0-------------------------------------------------|


e----------------------------------------------------|
B----------------------------------------------------|
G--------------0-----------------0-----------0-------|
D--2-----4--------4--------4-----------4-------------|
A----------------------------------------------------|
E----------------------------------------------------|


e--------------------------------------0-------------|
B--------------------------------------------3-------|
G-----------0--------------------0-------------------|
D-----4-----------4-----4----------------------------|
A--3-------------------------------------------------|
E----------------------------------------------------|


e--------------------------------------0-------------|
B--------------------------------------------3-------|
G--0-----------0-----------------0-------------------|
D--------4--------4--------4-------------------------|
A----------------------------------------------------|
E----------------------------------------------------|


e--------------------------------------0-------------|
B--------------------------------------------3-------|
G--------------0-----------------0-------------------|
D--------4--------4--------4-------------------------|
A----------------------------------------------------|
E--0-------------------------------------------------|


e-------------------------------------------------------------------------------
B-------------------------------------------------------------------------------
G--------------------------------------0-----------------------------------4h---
D--2-----------------4-----------------------------------4----------------------
A-------------------------------------------------------------------------------
E-------------------------------------------------------------------------------


e---------------------------------------------------------------------|
B---------------------------------------------------------------------|
G-2h----0-------------------------------------------------------------|
D-------------4h----2h----0--------------------------------0----------|
A-------------------------------2h-------3L----------------3----------|
E---------------------------------------------------------------------|


e--------------------------------------0-------------|
B--------------------------------------------3-------|
G-----------0--------------------0-------------------|
D-----4-----------4-----4----------------------------|
A--3-------------------------------------------------|
E----------------------------------------------------|


e--------------------------------------0-------------|
B--------------------------------------------3-------|
G--------------0-----------------0-------------------|
D--------4--------4--------4-------------------------|
A--3-------------------------------------------------|
E----------------------------------------------------|


e--------------------------------------0-------------|
B--------------------------------------------3-------|
G--------------0-----------------0-------------------|
D--------4--------4--------4-------------------------|
A----------------------------------------------------|
E--0-------------------------------------------------|


e-------------------------------------------------------------------------------
B-------------------------------------------------------------------------------
G--------------------------------------0-----------------------------------0----
D--------------------4--------------------------4-------------------------------
A-------------------------------------------------------------------------------
E--0----------------------------------------------------------------------------


e--------------------------------------------------------------------|
B--------------------------------------------------------------------|
G------------0-----------------4h----2h----0-------------------------|
D------------------------------------------------4h----2h----0-------|
A--------------------------------------------------------------------|
E--------------------------------------------------------------------|


e--------------------------------------0-------------|
B--------------------------------------------3-------|
G--------------0-----------------0-------------------|
D--------4--------4--------4-------------------------|
A--3-------------------------------------------------|
E----------------------------------------------------|


e--------------------------------------0-------------|
B--------------------------------------------3-------|
G--------------0-----------------0-------------------|
D--------4--------4--------4-------------------------|
A--3-------------------------------------------------|
E----------------------------------------------------|


e--------------------------------------0-------------|
B--------------------------------------------3-------|
G-----------------0--------------0-------------------|
D--2-----4-----4--------4--4-------------------------|
A----------------------------------------------------|
E----------------------------------------------------|


e-------------------------------------------------------------------------------
B-------------------------------------------------------------------------------
G-------------------------------------0-----------------------------------4h----
D-------------------4--------------------------4--------------------------------
A-------------------------------------------------------------------------------
E-0-----------------------------------------------------------------------------


e---------------------------------------------------------------------|
B---------------------------------------------------------------------|
G-2h----0-------------------------------------------------------------|
D-------------4h----2h----0-------------------------------------------|
A-------------------------------2h-------3-----------------3----------|
E---------------------------------------------------------------------|


e--------------0-----0-----------------0-------------|
B-----------------------2--------------------2-------|
G--0-----0-----------------------0-------------------|
D-----------------------2----------------------------|
A--0-------------------------------------------------|
E----------------------------------------------------|


e--------------------------------------------------------------------------0----
B--------------------------------------2-----------------------------------2----
G--------------------------0-----------------------------------0----------------
D--------------2----------------------------------------------------------------
A--0----------------------------------------------------------------------------
E-------------------------------------------------------------------------------


e--------------------|----------------------------------------------------|
B--------------------|--------------------------3-------------------------|
G------0-------------|--0--------0--------------------0-----------0-------|
D--------------------|--------2-----------2-----------------2-------------|
A--------------------|--3-------------------------------------------------|
E--------------------|----------------------------------------------------|


e--0----|--3-----3-----3--------------------2----------------|
B--3----|--3-----3--------3-----------3----------------------|
G--0----|--0-----------------0-----------2-------------------|
D--2----|--------2-----------------0-------------------------|
A--3----|----------------------------------------------------|
E-------|----------------------------------------------------|


e--------------------------0-----------------------------------------0----------
B--3-----------3-----------------3-----------------------0----------------------
G--2-----------2-----------------------0-----------------------0----------------
D-------------------------------------------------------------------------------
A--2-----------2-----------2-----------------------3----------------------------
E-------------------------------------------------------------------------------


e------------3--3----|--3-----3-----3--------------------2----------------|
B------------3-------|--3-----3--------3-----------3----------------------|
G--------------------|--------------------0-----------2-------------------|
D------------2-------|--2-----2-----------------0-------------------------|
A--------------------|----------------------------------------------------|
E--------------------|----------------------------------------------------|


e--------------0--------------------0----------------||
B--3-----3--------3-----------0----------------------||
G--2-----2-----------0-----------0-------------------||
D----------------------------------------------------||
A--2-----2-----2-----------3-------------------------||
E----------------------------------------------------||


        
Comments

No comments yet