Gametabs
Home
Tabs
Random

Water Land

Average rating: No ratings

Composer:

Tabber:

Style:

Instrument:

Created: February 07, 2015 at 12:00 AM

            Water Land
Kirby's Epic Yarn
Composed by Tomoya Tomita
Tabbed by hslesperance
2/7/15

Guitar 1 - Standard Tuning
Guitar 2 - Drop D Tuning (DADGBe)




Guitar 1

  W                       W
|-----------------------|-----------------------|
|-----------------------|-----------------------|
|-----------------------|-----------------------|
|-----------------------|-----------------------|
|-----------------------|-----------------------|
|-----------------------|-----------------------|


    a  Q.        +S   S  +Q.    E   Q.       +S   S  +E. E    S.   S.
||--9h10--------(10)--------------|-8--------(8)-12-(12)-----10----8--|
||o------------------12-(12)------|-----------------------------------|
||--------------------------------|-----------------------------------|
||--------------------------------|-----------------------------------|
||o-------------------------------|-----------------------------------|
||--------------------------------|-----------------------------------|


   Q.        +S   S  +Q   E  S  S    E  S  e    e  S  +Q    Q
|-10--------(10)------------------|------------------------------|
|----------------12-(12)----10-12-|-13-13-12---------------10----|
|---------------------------------|------------12-12-(12)--------|
|---------------------------------|------------------------------|
|---------------------------------|------------------------------|
|---------------------------------|------------------------------|


   Q.        +S   S  +Q.    E   Q.        T  T  Q.         S.   S.
|-10--------(10)--------------|-8--------10h11h12---------10----8--|
|----------------12-(12)------|------------------------------------|
|-----------------------------|------------------------------------|
|-----------------------------|------------------------------------|
|-----------------------------|------------------------------------|
|-----------------------------|------------------------------------|


   Q.        +S   S  +Q   E  S  S    E  S  e    e  S  +Q    Q
|-10--------(10)------------------|-------10-------------------|
|----------------12-(12)----10-12-|-13-13------12-10-(10)------|
|---------------------------------|----------------------------|
|---------------------------------|------------------------12--|
|---------------------------------|----------------------------|
|---------------------------------|----------------------------|


  a  H.              E  S  S    +H           +S  S S S  Q
|-8s10--------------12----10-|-(10)---------(10)------------|
|----------------------12----|-----------------------7-10---|
|----------------------------|---------------------7--------|
|----------------------------|-------------------9----------|
|----------------------------|------------------------------|
|----------------------------|------------------------------|


   E  S  E    S  S  S  +Q.        S  S    Q    Q      Q      Q
|--------------------------------------|---------------------------|
|-13-12-13---13-12-13-(13)-------10-12-|-13---12------------10-----|
|--------------------------------------|-------------12------------|
|--------------------------------------|---------------------------|
|--------------------------------------|---------------------------|
|--------------------------------------|---------------------------|


  a  H.              E  S  S    +Q.        +S   S +Q.          S  S
|-8s10--------------12----10-|-(10)-------(10)----------------------|
|----------------------12----|-----------------^9-(9)---------10-12-|
|----------------------------|-----------------^9-(9)---------------|
|----------------------------|-----------------^9-(9)---------------|
|----------------------------|--------------------------------------|
|----------------------------|--------------------------------------|


   E  S  E    E   S  +Q     E     E    +Q.    S  S  Q.    e
|--------------------------------10-|-(10)------------------|
|-13-13-12---12--10-(10)------------|--------13-12-10-------|
|--------------------------12-------|--------------------12-|
|-----------------------------------|-----------------------|
|-----------------------------------|-----------------------|
|-----------------------------------|-----------------------|


   W                       W
|------------------------|-----------------------|
|------------------------|-----------------------|
|-12---------------------|-----------------------|
|------------------------|-----------------------|
|------------------------|-----------------------|
|------------------------|-----------------------|

                                                        |--3---|
   E    S  E  E.  E    S  E  E    S    S  E    E  S  E  E   E  E    E   E
|-15---15-------------------15------|-------------------------------------|
|---------15-------------17------17-|-15------------15-------------15--15-|
|------------16--17---17------------|----16---16-17----17--16-17----------|
|-----------------------------------|-------------------------------------|
|-----------------------------------|-------------------------------------|
|-----------------------------------|-------------------------------------|

                                                        |--3---|
   E    S  E  E.  E    S  E  E    S    S  E    E  S  E  E   E  E    E   E
|-15---15-------------------15------|-----------------------------------------||
|---------15-------------17------17-|-15------------15-----------------------o||
|------------16--17---17------------|----16---16-17----17--17-16---14---------||
|-----------------------------------|----------------------------------17-----||
|-----------------------------------|----------------------------------------o||
|-----------------------------------|-----------------------------------------||




Guitar 2

  S S S E  E.   S S S E  E.   S S S E  E  S E.   S +Q
|-------7-------------7-----|-----2-5--2----3----3-(3)--|
|-----8----8------5-8----8--|---3-----------5----5-(5)--|
|---7-----------5-----------|-4-----------4-5----5-(5)--|
|-5-------------------------|---------------------------|
|---------------------------|---------------3----5-(5)--|
|---------------------------|---------------------------|


    E  E  S E  S +Q   E  E   E  E  S E  S  +Q   E  E   E  E  S E  S +Q   E  E   E  E  S E  S +Q   Q
||-------------------------|-------------------------|------------------------|----------------------|
||o-3----------------------|------------5--(5)-------|-3----------------------|------------3-(3)-----|
||--4----------4-(4)-----4-|-5--5----5--5--(5)-------|-4----------4-(4)-----4-|-5--5----5--5-(5)-----|
||--4--4----4--5-(5)-----5-|-5--5----5--5--(5)-----5-|-4--4----4--5-(5)-----5-|-5--5----5--5-(5)-----|
||o-5--5----5--5-(5)-------|-------------------------|-5--5----5--5-(5)-------|-0-----0----5-(5)-----|
||--------5-----------5----|-------5------------5----|-------5-----------5----|-------------------0--|


  E  E  S E  S +Q   E  E   E  E  S E  S +Q   E  E   E  E  S E  S +Q   E  E   E  E  S E  S +Q   Q
|------------------------|------------------------|------------------------|----------------------|
|-3----------------------|------------5-(5)-------|-3----------------------|------------3-(3)-----|
|-4----------4-(4)-----4-|-5--5----5--5-(5)-------|-4----------4-(4)-----4-|-5--5----5--5-(5)-----|
|-4--4----4--5-(5)-----5-|-5--5----5--5-(5)-----5-|-4--4----4--5-(5)-----5-|-5--5----5--5-(5)-----|
|-5--5----5--5-(5)-------|------------------------|-5--5----5--5-(5)-------|-0-----0----5-(5)-----|
|-------5-----------5----|-------5-----------5----|-------5-----------5----|-------------------0--|


  E  E  S E  E  E  S E  E   E  E  S E  E  E  S E  E   E  E  S E  E  E  S E  E   E  E  S E  E  E  S E  E
|-------------------------|-------------------------|-0-------0--0----------0-|--------------------------|
|----5----5--5-----5-5----|----3----3--3-------3----|-1--1----1--1-------1----|-5--5----5--5----------5--|
|-4--4----4--4-----4-4----|----2----2--2-------2----|-0--0----0--0-----0------|-4--4----4--4-------5-----|
|-5--5----5--5-----5-5----|-4--4----4--4-----4-4----|-2--2----2--2------------|-5--5----5--5-----5-------|
|-3--3--3-------3-------3-|-2--2--2-------2-------2-|-0-----0-------0---------|-5-----5-------5----------|
|-------------------------|-------------------------|-------------------------|--------------------------|


  E  E  S E  E  E  S Q   E  E  S E  E  S S E  S E   E  E  S E.   E  E  S E.    W
|----------------------|--------------------------|-0--0----0---------------|-^3-------------------|
|----5----5--5---------|-3--3----3-^0------0------|-1--1----1----3--3----3--|-^1-------------------|
|-4--4----4--4-------4-|-2--2----2-^1----1------1-|-0--0----0----2--2----2--|-^2-------------------|
|-5--5----5--5-----5---|-4--4----4-^2--2------2---|-2--2----2----4--4----4--|-^0-------------------|
|-3--3--3-------3------|-2--2--2------------------|-0-----0------2-----2----|----------------------|
|----------------------|--------------------------|-------------------------|----------------------|


  S S S E  E.   S S S E  E.   S S S E  E  S E.   S +Q
|-------7-------------7-----|-----2-5--2----3----3-(3)--|
|-----8----8------5-8----8--|---3-----------5----5-(5)--|
|---7-----------5-----------|-4-----------4-5----5-(5)--|
|-5-------------------------|---------------------------|
|---------------------------|---------------3----5-(5)--|
|---------------------------|---------------------------|


  S S S E  E.   S S S E  S E   S S S E  S E  E.   S +Q    S S S E  E.   S S S E  S E   S S S E  S E  E.   S +Q
|----------------------------|--------------------------|----------------------------|----------------------------||
|----------3----------5--3---|-------3-------3----3-(3)-|----------3----------5--3---|-------3-------3----3-(3)--o||
|-------4-----------5------5-|-----4----5-4--4----4-(4)-|-------4-----------5------5-|-----4----5-4--4----4-(4)---||
|-5---5-----------5----------|---4-----------5----5-(5)-|-5---5-----------5----------|---4-----------5----5-(5)---||
|---5-----------3------------|-2-------------3----5-(5)-|---5-----------3------------|-2-------------3----5-(5)--o||
|----------------------------|--------------------------|----------------------------|----------------------------||

h - hammer on
s - slide

W - whole
H - half
Q - quarter
E - 8th
S - 16th
T - 32nd
a - acciaccatura
+ - note tied to previous
. - note dotted

Uncapitalized letters represent notes that are staccato (1/2 duration)
Irregular groupings are notated above the duration line

        
Comments

No comments yet