Gametabs
Home
Tabs
Random

Tutorial Theme

Average rating: 5.000

3 ratings

Composer:

Tabber:

Style:

Instrument:

Created: August 11, 2008 at 12:00 AM

            Tutorial Theme
Final Fantasy Tactics

Guitar 1



     W                   S E.  S E.  S E.  S E.     S E.  S E.  S E.  S E.   
E||-------------------|--------------5-----5-----|--------------5-----5-----|
B||-------------------|--------------5-----5-----|--------------5-----5-----|
G||-------------------|--------------7-----7-----|--------------7-----7-----|
D||-------------------|--------------------------|--------------------------|
A||-------------------|--------0-----------------|--0-----------------------|
E||-------------------|--0-----------------------|--------5-----------------|


  S E.  S E.  S E.  S E.     S E.  S E.  S E.  S E.   
--------------5-----5-----|--------------5-----5-----|
--------------5-----5-----|--------------5-----5-----|
--------------7-----7-----|--------------7-----7-----|
--------------------------|--------------------------|
--------------------------|--------------------------|
--5-----5-----------------|--5-----5-----------------|


  S E.  S E.  S E.  S E.     S E.  S E.  S E.  S E.   
--------------5-----5-----|--------------5-----5-----|
--------------5-----5-----|--------------5-----5-----|
--------------7-----7-----|--------------7-----7-----|
--------------------------|--------------------------|
--------------------------|--------------------------|
--5-----5-----------------|--5-----5-----------------|


  S E.  S E.  S E.  S E.     S E.  S E.  S E.  S E.   
--------------5-----5-----|--------------5-----5-----|
--------------5-----5-----|--------------5-----5-----|
--------------6-----6-----|--------------6-----6-----|
--------------------------|--------------------------|
--------------------------|--------------------------|
--5-----5-----------------|--5-----5-----------------|


  S E.  S E.  S E.  S E.     S E.  S E.  S E.  S E.   
--------------5-----5-----|--------------5-----5-----|
--------------5-----5-----|--------------5-----5-----|
--------------7-----7-----|--------------7-----7-----|
--------------------------|--------------------------|
--------------------------|--------------------------|
--0-----5-----------------|--5-----5-----------------|


  S E.  S E.  S E.  S E.     S E.  S E.  S E.  S E.   
--------------5-----5-----|--------------5-----5-----|
--------------5-----5-----|--------------5-----5-----|
--------------7-----7-----|--------------7-----7-----|
--------------------------|--------------------------|
--------------------------|--------------------------|
--5-----5-----------------|--5-----5-----------------|


  S E.  S E.  S E.  S E.     S E.  S E.  S E.  S E.   
--------------3-----3-----|--------------3-----3-----|
--------------3-----3-----|--------------3-----3-----|
--------------4-----4-----|--------------4-----4-----|
--------------------------|--------------------------|
--------------------------|--------------------------|
--0-----3-----------------|--3-----3-----------------|


  S E.  S E.  S E.  S E.     S E.  S E.  S E.  S E.   
--------------3-----3-----|--------------3-----3-----|
--------------3-----3-----|--------------3-----3-----|
--------------4-----4-----|--------------4-----4-----|
--------------------------|--------------------------|
--------------------------|--------------------------|
--3-----3-----------------|--3-----3-----------------|


  S E.  S E.  S E.  S E.     S E.  S E.  S E.  S E.   
--------------5-----5-----|--------------5-----5-----|
--------------5-----5-----|--------------5-----5-----|
--------------7-----7-----|--------------7-----7-----|
--------------------------|--------------------------|
--2-----0-----------------|--0-----------------------|
--------------------------|--------5-----------------|


  S E.  S E.  S E.  S E.     S E.  S E.  S E.  S E.   
--------------5-----5-----|--------------5-----5-----|
--------------5-----5-----|--------------5-----5-----|
--------------7-----7-----|--------------7-----7-----|
--------------------------|--------------------------|
--------------------------|--------------------------|
--5-----5-----------------|--5-----5-----------------|


  S E.  S E.  S E.  S E.     S E.  S E.  S E.  S E.   
--------------3-----3-----|--------------3-----3-----|
--------------3-----3-----|--------------3-----3-----|
--------------4-----4-----|--------------4-----4-----|
--------------------------|--------------------------|
--------------------------|--------------------------|
--0-----3-----------------|--3-----3-----------------|


  S E.  S E.  S E.  S E.     S E.  S E.  S E.  S E.   
--------------3-----3-----|--------------3-----3-----|
--------------3-----3-----|--------------3-----3-----|
--------------4-----4-----|--------------4-----4-----|
--------------------------|--------------------------|
--------------------------|--------------------------|
--3-----3-----------------|--3-----3-----------------|


  S E.  S E.  S E.  S E.     S E.  S E.  S E.  S E.   
--------------5-----5-----|--------------5-----5-----|
--------------5-----5-----|--------------5-----5-----|
--------------6-----6-----|--------------6-----6-----|
--------------------------|--------------------------|
--------0-----------------|--------------------------|
--0-----------------------|--5-----5-----------------|


  S E.  S E.  S E.  S E.     S E.  S E.  S E.  S E.   
--------------5-----5-----|--------------5-----5-----|
--------------5-----5-----|--------------5-----5-----|
--------------7-----7-----|--------------6-----6-----|
--------------------------|--------------------------|
--------------------------|--------------------------|
--5-----5-----------------|--5-----5-----------------|


  S E.  S E.  S E.  S E.     S E.  S E.  S E.  S E.   
--------------5-----5-----|--------------5-----5-----|
--------------5-----5-----|--------------5-----5-----|
--------------7-----7-----|--------------7-----7-----|
--------------------------|--------------------------|
--------------------------|--------------------------|
--0-----5-----------------|--5-----5-----------------|


  S E.  S E.  S E.  S E.     S E.  S E.  S E.  S E.   
--------------5-----5-----|--------------5-----5-----|
--------------5-----5-----|--------------5-----5-----|
--------------7-----7-----|--------------7-----7-----|
--------------------------|--------------------------|
--------------------------|--------------------------|
--5-----5-----------------|--5-----5-----------------|


  S E.  S E.  S E.  S E.     S E.  S E.  S E.  S E.   
--------------3-----3-----|--------------3-----3-----|
--------------3-----3-----|--------------3-----3-----|
--------------4-----4-----|--------------4-----4-----|
--------------------------|--------------------------|
--------------------------|--------------------------|
--0-----3-----------------|--3-----3-----------------|


  S E.  S E.  S E.  S E.     S E.  S E.  S E.  S E.   
--------------3-----3-----|--------------3-----3-----|
--------------3-----3-----|--------------3-----3-----|
--------------4-----4-----|--------------4-----4-----|
--------------------------|--------------------------|
--------------------------|--------------------------|
--3-----3-----------------|--3-----3-----------------|


  S E.  S E.  S E.  S E.     S E.  S E.  S E.  S E.   
--------------5-----5-----|--------------5-----5-----|
--------------5-----5-----|--------------5-----5-----|
--------------7-----7-----|--------------7-----7-----|
--------------------------|--------------------------|
--2-----0-----------------|--0-----------------------|
--------------------------|--------5-----------------|


  S E.  S E.  S E.  S E.     S E.  S E.  S E.  S E.   
--------------5-----5-----|--------------5-----5-----|
--------------5-----5-----|--------------5-----5-----|
--------------7-----7-----|--------------7-----7-----|
--------------------------|--------------------------|
--------------------------|--------------------------|
--5-----5-----------------|--5-----5-----------------|


  S E.  S E.  S E.  S E.     S E.  S E.  S E.  S E.   
--------------3-----3-----|--------------3-----3-----|
--------------3-----3-----|--------------3-----3-----|
--------------4-----4-----|--------------4-----4-----|
--------------------------|--------------------------|
--------------------------|--------------------------|
--0-----3-----------------|--3-----3-----------------|


  S E.  S E.  S E.  S E.     S E.  S E.  S E.  S E.   
--------------3-----3-----|--------------3-----3-----|
--------------3-----3-----|--------------3-----3-----|
--------------4-----4-----|--------------4-----4-----|
--------------------------|--------------------------|
--------------------------|--------------------------|
--3-----3-----------------|--3-----3-----------------|


  S E.  S E.  S E.  S E.     S E.  S E.  S E.  S E.   
--------------5-----5-----|--------------5-----5-----|
--------------5-----5-----|--------------5-----5-----|
--------------7-----7-----|--------------7-----7-----|
--------------------------|--------------------------|
--------0-----------------|--0-----------------------|
--0-----------------------|--------5-----------------|


  S E.  S E.  S E.  S E.     S E.  S E.  S E.  S E.     S E.  S Q.     S S E.   
--------------5-----5-----|--------------5-----5-----|-------------------------|
--------------5-----5-----|--------------5-----5-----|-------------------------|
--------------6-----6-----|--------------6-----6-----|-------------------------|
--------------------------|--------------------------|-------------------------|
--------------------------|--------------------------|--------2----------2-----|
--5-----5-----------------|--5-----5-----------------|--0----------------------|


  S Q.     S S E.  S E.     S E.  S E.  S E.  S E.     S E.  S E.  S E.  S E.   
-------------------------|--------------------------|--------------------------|
-------------------------|--------------------------|--------------------------|
-------------------------|--------------------------|--------------------------|
-------------------------|--------------------------|--------------------------|
--0----------0-----------|--------------------------|--------------0-----2-----|
-------------------3-----|--3-----3-----3-----3-----|--3-----3-----------------|


  Q    S E.  S Q.     S    S E.  S E.  S E.  S E.     S E.  S E.  S E.  S E.   
------------------------|--------------------------|--------------------------|
------------------------|--------------------------|--------------------------|
------------------------|--------------------------|--------------------------|
------------------------|--------------------------|--------------------------|
-------2-----0----------|--0-----------------------|--------------------------|
------------------------|--------------------------|--------------------------|


  S E.  S Q.     S S E.     S Q.     S S E.  S E.     S E.  S E.  S E.  S E.   
-------------------------|-------------------------|--------------------------|
-------------------------|-------------------------|--------------------------|
-------------------------|-------------------------|--------------------------|
-------------------------|-------------------------|--------------------------|
--0-----2----------2-----|--0----------0-----------|--------------------------|
-------------------------|-------------------3-----|--3-----3-----3-----3-----|


  S E.  S E.  S E.  S E.     Q    S E.  S Q.     S    S E.  S E.  S E.  S E.   
--------------------------|------------------------|--------------------------|
--------------------------|------------------------|--------------------------|
--------------------------|------------------------|--------------------------|
--------------------------|------------------------|--------------------------|
--------------0-----2-----|-------2-----0----------|--0-----------------------|
--3-----3-----------------|------------------------|--------------------------|


    S E.  S E.  S E.  S E.     S E.  S E.  S E.  S E.   
|---------------------------|--------------5-----5-----|
|---------------------------|--------------5-----5-----|
|*--------------------------|--------------6-----6-----|
|*--------------------------|--------------------------|
|---------------------------|--------0-----------------|
|---------------------0-----|--0-----------------------|


  S E.  S E.  S E.  S E.     S E.  S E.  S E.  S E.   
--------------5-----5-----|--------------5-----5-----|
--------------5-----5-----|--------------5-----5-----|
--------------6-----6-----|--------------7-----7-----|
--------------------------|--------------------------|
--------------------------|--------------------------|
--5-----5-----------------|--5-----5-----------------|


  S E.  S E.  S E.  S E.     S E.  S E.  S E.  S E.   
--------------5-----5-----|--------------5-----5-----|
--------------5-----5-----|--------------5-----5-----|
--------------7-----7-----|--------------7-----7-----|
--------------------------|--------------------------|
--------------------------|--------------------------|
--5-----5-----------------|--5-----5-----------------|


  S E.  S E.  S E.  S E.     S E.  S E.  S E.  S E.   
--------------5-----5-----|--------------5-----5-----|
--------------5-----5-----|--------------5-----5-----|
--------------7-----7-----|--------------6-----6-----|
--------------------------|--------------------------|
--------------------------|--------------------------|
--5-----5-----------------|--5-----5-----------------|


  S E.  S E.  S E.  S E.     S E.  S E.  S E.  S E.   
--------------5-----5-----|--------------5-----5-----|
--------------5-----5-----|--------------5-----5-----|
--------------6-----6-----|--------------7-----7-----|
--------------------------|--------------------------|
--------------------------|--------------------------|
--5-----5-----------------|--0-----5-----------------|


  S E.  S E.  S E.  S E.     S E.  S E.  S E.  S E.   
--------------5-----5-----|--------------5-----5-----|
--------------5-----5-----|--------------5-----5-----|
--------------7-----7-----|--------------7-----7-----|
--------------------------|--------------------------|
--------------------------|--------------------------|
--5-----5-----------------|--5-----5-----------------|


  S E.  S E.  S E.  S E.     S E.  S E.  S E.  S E.   
--------------5-----5-----|--------------3-----3-----|
--------------5-----5-----|--------------3-----3-----|
--------------7-----7-----|--------------4-----4-----|
--------------------------|--------------------------|
--------------------------|--------------------------|
--5-----5-----------------|--0-----3-----------------|


  S E.  S E.  S E.  S E.     S E.  S E.  S E.  S E.   
--------------3-----3-----|--------------3-----3-----|
--------------3-----3-----|--------------3-----3-----|
--------------4-----4-----|--------------4-----4-----|
--------------------------|--------------------------|
--------------------------|--------------------------|
--3-----3-----------------|--3-----3-----------------|


  S E.  S E.  S E.  S E.     S E.  S E.  S E.  S E.   
--------------3-----3-----|--------------5-----5-----|
--------------3-----3-----|--------------5-----5-----|
--------------4-----4-----|--------------7-----7-----|
--------------------------|--------------------------|
--------------------------|--2-----0-----------------|
--3-----3-----------------|--------------------------|


  S E.  S E.  S E.  S E.     S E.  S E.  S E.  S E.   
--------------5-----5-----|--------------5-----5-----|
--------------5-----5-----|--------------5-----5-----|
--------------7-----7-----|--------------7-----7-----|
--------------------------|--------------------------|
--0-----------------------|--------------------------|
--------5-----------------|--5-----5-----------------|


  S E.  S E.  S E.  S E.     S E.  S E.  S E.  S E.   
--------------5-----5-----|--------------3-----3-----|
--------------5-----5-----|--------------3-----3-----|
--------------7-----7-----|--------------4-----4-----|
--------------------------|--------------------------|
--------------------------|--------------------------|
--5-----5-----------------|--0-----3-----------------|


  S E.  S E.  S E.  S E.     S E.  S E.  S E.  S E.   
--------------3-----3-----|--------------3-----3-----|
--------------3-----3-----|--------------3-----3-----|
--------------4-----4-----|--------------4-----4-----|
--------------------------|--------------------------|
--------------------------|--------------------------|
--3-----3-----------------|--3-----3-----------------|


  S E.  S E.  S E.  S E.     S E.  S E.  S E.  S E.   
--------------3-----3-----|--------------5-----5-----|
--------------3-----3-----|--------------5-----5-----|
--------------4-----4-----|--------------6-----6-----|
--------------------------|--------------------------|
--------------------------|--------0-----------------|
--3-----3-----------------|--0-----------------------|


  S E.  S E.  S E.  S E.     S E.  S E.  S E.  S E.   
--------------5-----5-----|--------------5-----5-----|
--------------5-----5-----|--------------5-----5-----|
--------------6-----6-----|--------------7-----7-----|
--------------------------|--------------------------|
--------------------------|--------------------------|
--5-----5-----------------|--5-----5-----------------|


  S E.  S E.  S E.  S E.     S E.  S E.  S E.  S E.   
--------------5-----5-----|--------------5-----5-----|
--------------5-----5-----|--------------5-----5-----|
--------------6-----6-----|--------------7-----7-----|
--------------------------|--------------------------|
--------------------------|--------------------------|
--5-----5-----------------|--0-----5-----------------|


  S E.  S E.  S E.  S E.     S E.  S E.  S E.  S E.   
--------------5-----5-----|--------------5-----5-----|
--------------5-----5-----|--------------5-----5-----|
--------------7-----7-----|--------------7-----7-----|
--------------------------|--------------------------|
--------------------------|--------------------------|
--5-----5-----------------|--5-----5-----------------|


  S E.  S E.  S E.  S E.     S E.  S E.  S E.  S E.   
--------------5-----5-----|--------------3-----3-----|
--------------5-----5-----|--------------3-----3-----|
--------------7-----7-----|--------------4-----4-----|
--------------------------|--------------------------|
--------------------------|--------------------------|
--5-----5-----------------|--0-----3-----------------|


  S E.  S E.  S E.  S E.     S E.  S E.  S E.  S E.   
--------------3-----3-----|--------------3-----3-----|
--------------3-----3-----|--------------3-----3-----|
--------------4-----4-----|--------------4-----4-----|
--------------------------|--------------------------|
--------------------------|--------------------------|
--3-----3-----------------|--3-----3-----------------|


  S E.  S E.  S E.  S E.     S E.  S E.  S E.  S E.   
--------------3-----3-----|--------------5-----5-----|
--------------3-----3-----|--------------5-----5-----|
--------------4-----4-----|--------------7-----7-----|
--------------------------|--------------------------|
--------------------------|--2-----0-----------------|
--3-----3-----------------|--------------------------|


  S E.  S E.  S E.  S E.     S E.  S E.  S E.  S E.   
--------------5-----5-----|--------------5-----5-----|
--------------5-----5-----|--------------5-----5-----|
--------------7-----7-----|--------------7-----7-----|
--------------------------|--------------------------|
--0-----------------------|--------------------------|
--------5-----------------|--5-----5-----------------|


  S E.  S E.  S E.  S E.     S E.  S E.  S E.  S E.   
--------------5-----5-----|--------------3-----3-----|
--------------5-----5-----|--------------3-----3-----|
--------------7-----7-----|--------------4-----4-----|
--------------------------|--------------------------|
--------------------------|--------------------------|
--5-----5-----------------|--0-----3-----------------|


  S E.  S E.  S E.  S E.     S E.  S E.  S E.  S E.   
--------------3-----3-----|--------------3-----3-----|
--------------3-----3-----|--------------3-----3-----|
--------------4-----4-----|--------------4-----4-----|
--------------------------|--------------------------|
--------------------------|--------------------------|
--3-----3-----------------|--3-----3-----------------|


  S E.  S E.  S E.  S E.     S E.  S E.  S E.  S E.   
--------------3-----3-----|--------------5-----5-----|
--------------3-----3-----|--------------5-----5-----|
--------------4-----4-----|--------------7-----7-----|
--------------------------|--------------------------|
--------------------------|--------0-----------------|
--3-----3-----------------|--0-----------------------|


  S E.  S E.  S E.  S E.     S E.  S E.  S E.  S E.   
--------------5-----5-----|--------------5-----5-----|
--------------5-----5-----|--------------5-----5-----|
--------------7-----7-----|--------------6-----6-----|
--------------------------|--------------------------|
--0-----------------------|--------------------------|
--------5-----------------|--5-----5-----------------|


  S E.  S E.  S E.  S E.     S E.  S Q.     S S E.     S Q.     S S E.  S E.   
--------------5-----5-----|-------------------------|-------------------------|
--------------5-----5-----|-------------------------|-------------------------|
--------------6-----6-----|-------------------------|-------------------------|
--------------------------|-------------------------|-------------------------|
--------------------------|--------2----------2-----|--0----------0-----------|
--5-----5-----------------|--0----------------------|-------------------3-----|


  S E.  S E.  S E.  S E.     S E.  S E.  S E.  S E.     Q    S E.  S Q.     S  
--------------------------|--------------------------|------------------------|
--------------------------|--------------------------|------------------------|
--------------------------|--------------------------|------------------------|
--------------------------|--------------------------|------------------------|
--------------------------|--------------0-----2-----|-------2-----0----------|
--3-----3-----3-----3-----|--3-----3-----------------|------------------------|


  S E.  S E.  S E.  S E.     S E.  S E.  S E.  S E.     S E.  S Q.     S S E.   
--------------------------|--------------------------|-------------------------|
--------------------------|--------------------------|-------------------------|
--------------------------|--------------------------|-------------------------|
--------------------------|--------------------------|-------------------------|
--0-----------------------|--------------------------|--0-----2----------2-----|
--------------------------|--------------------------|-------------------------|


  S Q.     S S E.  S E.     S E.  S E.  S E.  S E.     S E.  S E.  S E.  S E.   
-------------------------|--------------------------|--------------------------|
-------------------------|--------------------------|--------------------------|
-------------------------|--------------------------|--------------------------|
-------------------------|--------------------------|--------------------------|
--0----------0-----------|--------------------------|--------------0-----2-----|
-------------------3-----|--3-----3-----3-----3-----|--3-----3-----------------|


  Q    S E.  S Q.     S    S E.  S E.  S E.  S E.     S E.  S E.  S E.  S E.   
------------------------|--------------------------|--------------------------|
------------------------|--------------------------|--------------------------|
------------------------|--------------------------|--------------------------|
------------------------|--------------------------|--------------------------|
-------2-----0----------|--0-----------------------|--------------------------|
------------------------|--------------------------|--------------------0-----|


  S E.  S E.  S E.  S E.     S E.  S E.  S E.  S E.   
--------------5-----5-----|--------------5-----5-----|
--------------5-----5-----|--------------5-----5-----|
--------------6-----6-----|--------------6-----6-----|
--------------------------|--------------------------|
--------0-----------------|--------------------------|
--0-----------------------|--5-----5-----------------|


  S E.  S E.  S E.  S E.     S E.  S E.  S E.  S E.   
--------------5-----5-----|--------------5-----5-----|
--------------5-----5-----|--------------5-----5-----|
--------------7-----7-----|--------------7-----7-----|
--------------------------|--------------------------|
--------------------------|--------------------------|
--5-----5-----------------|--5-----5-----------------|


  S E.  S E.  S E.  S E.     S E.  S E.  S E.  S E.   
--------------5-----5-----|--------------5-----5-----|
--------------5-----5-----|--------------5-----5-----|
--------------7-----7-----|--------------7-----7-----|
--------------------------|--------------------------|
--------------------------|--------------------------|
--5-----5-----------------|--5-----5-----------------|


  S E.  S E.  S E.  S E.     S E.  S E.  S E.  S E.   
--------------5-----5-----|--------------5-----5-----|
--------------5-----5-----|--------------5-----5-----|
--------------6-----6-----|--------------6-----6-----|
--------------------------|--------------------------|
--------------------------|--------------------------|
--5-----5-----------------|--5-----5-----------------|


  S E.  S E.  S E.  S E.     S E.  S E.  S E.  S E.   
--------------5-----5-----|--------------5-----5-----|
--------------5-----5-----|--------------5-----5-----|
--------------7-----7-----|--------------7-----7-----|
--------------------------|--------------------------|
--------------------------|--------------------------|
--0-----5-----------------|--5-----5-----------------|


  S E.  S E.  S E.  S E.     S E.  S E.  S E.  S E.   
--------------5-----5-----|--------------5-----5-----|
--------------5-----5-----|--------------5-----5-----|
--------------7-----7-----|--------------7-----7-----|
--------------------------|--------------------------|
--------------------------|--------------------------|
--5-----5-----------------|--5-----5-----------------|


  S E.  S E.  S E.  S E.     S E.  S E.  S E.  S E.   
--------------3-----3-----|--------------3-----3-----|
--------------3-----3-----|--------------3-----3-----|
--------------4-----4-----|--------------4-----4-----|
--------------------------|--------------------------|
--------------------------|--------------------------|
--0-----3-----------------|--3-----3-----------------|


  S E.  S E.  S E.  S E.     S E.  S E.  S E.  S E.   
--------------3-----3-----|--------------3-----3-----|
--------------3-----3-----|--------------3-----3-----|
--------------4-----4-----|--------------4-----4-----|
--------------------------|--------------------------|
--------------------------|--------------------------|
--3-----3-----------------|--3-----3-----------------|


  S E.  S E.  S E.  S E.     S E.  S E.  S E.  S E.   
--------------5-----5-----|--------------5-----5-----|
--------------5-----5-----|--------------5-----5-----|
--------------7-----7-----|--------------7-----7-----|
--------------------------|--------------------------|
--2-----0-----------------|--0-----------------------|
--------------------------|--------5-----------------|


  S E.  S E.  S E.  S E.     S E.  S E.  S E.  S E.   
--------------5-----5-----|--------------5-----5-----|
--------------5-----5-----|--------------5-----5-----|
--------------7-----7-----|--------------7-----7-----|
--------------------------|--------------------------|
--------------------------|--------------------------|
--5-----5-----------------|--5-----5-----------------|


  S E.  S E.  S E.  S E.     S E.  S E.  S E.  S E.   
--------------3-----3-----|--------------3-----3-----|
--------------3-----3-----|--------------3-----3-----|
--------------4-----4-----|--------------4-----4-----|
--------------------------|--------------------------|
--------------------------|--------------------------|
--0-----3-----------------|--3-----3-----------------|


  S E.  S E.  S E.  S E.     S E.  S E.  S E.  S E.   
--------------3-----3-----|--------------3-----3-----|
--------------3-----3-----|--------------3-----3-----|
--------------4-----4-----|--------------4-----4-----|
--------------------------|--------------------------|
--------------------------|--------------------------|
--3-----3-----------------|--3-----3-----------------|


  S E.  S E.  S E.  S E.     S E.  S E.  S E.  S E.   
--------------5-----5-----|--------------5-----5-----|
--------------5-----5-----|--------------5-----5-----|
--------------6-----6-----|--------------6-----6-----|
--------------------------|--------------------------|
--------0-----------------|--------------------------|
--0-----------------------|--5-----5-----------------|


  S E.  S E.  S E.  S E.     S E.  S E.  S E.  S E.   
--------------5-----5-----|--------------5-----5-----|
--------------5-----5-----|--------------5-----5-----|
--------------7-----7-----|--------------6-----6-----|
--------------------------|--------------------------|
--------------------------|--------------------------|
--5-----5-----------------|--5-----5-----------------|


  S E.  S E.  S E.  S E.     S E.  S E.  S E.  S E.   
--------------5-----5-----|--------------5-----5-----|
--------------5-----5-----|--------------5-----5-----|
--------------7-----7-----|--------------7-----7-----|
--------------------------|--------------------------|
--------------------------|--------------------------|
--0-----5-----------------|--5-----5-----------------|


  S E.  S E.  S E.  S E.     S E.  S E.  S E.  S E.   
--------------5-----5-----|--------------5-----5-----|
--------------5-----5-----|--------------5-----5-----|
--------------7-----7-----|--------------7-----7-----|
--------------------------|--------------------------|
--------------------------|--------------------------|
--5-----5-----------------|--5-----5-----------------|


  S E.  S E.  S E.  S E.     S E.  S E.  S E.  S E.   
--------------3-----3-----|--------------3-----3-----|
--------------3-----3-----|--------------3-----3-----|
--------------4-----4-----|--------------4-----4-----|
--------------------------|--------------------------|
--------------------------|--------------------------|
--0-----3-----------------|--3-----3-----------------|


  S E.  S E.  S E.  S E.     S E.  S E.  S E.  S E.   
--------------3-----3-----|--------------3-----3-----|
--------------3-----3-----|--------------3-----3-----|
--------------4-----4-----|--------------4-----4-----|
--------------------------|--------------------------|
--------------------------|--------------------------|
--3-----3-----------------|--3-----3-----------------|


  S E.  S E.  S E.  S E.     S E.  S E.  S E.  S E.   
--------------5-----5-----|--------------5-----5-----|
--------------5-----5-----|--------------5-----5-----|
--------------7-----7-----|--------------7-----7-----|
--------------------------|--------------------------|
--2-----0-----------------|--0-----------------------|
--------------------------|--------5-----------------|


  S E.  S E.  S E.  S E.     S E.  S E.  S E.  S E.   
--------------5-----5-----|--------------5-----5-----|
--------------5-----5-----|--------------5-----5-----|
--------------7-----7-----|--------------7-----7-----|
--------------------------|--------------------------|
--------------------------|--------------------------|
--5-----5-----------------|--5-----5-----------------|


  S E.  S E.  S E.  S E.     S E.  S E.  S E.  S E.   
--------------3-----3-----|--------------3-----3-----|
--------------3-----3-----|--------------3-----3-----|
--------------4-----4-----|--------------4-----4-----|
--------------------------|--------------------------|
--------------------------|--------------------------|
--0-----3-----------------|--3-----3-----------------|


  S E.  S E.  S E.  S E.     S E.  S E.  S E.  S E.   
--------------3-----3-----|--------------3-----3-----|
--------------3-----3-----|--------------3-----3-----|
--------------4-----4-----|--------------4-----4-----|
--------------------------|--------------------------|
--------------------------|--------------------------|
--3-----3-----------------|--3-----3-----------------|


  S E.  S E.  S E.  S E.     S E.  S E.  S E.  S E.   
--------------5-----5-----|--------------5-----5-----|
--------------5-----5-----|--------------5-----5-----|
--------------7-----7-----|--------------7-----7-----|
--------------------------|--------------------------|
--------0-----------------|--0-----------------------|
--0-----------------------|--------5-----------------|


  S E.  S E.  S E.  S E.     S E.  S E.  S E.  S E.     S E.  S Q.     S S E.   
--------------5-----5-----|--------------5-----5-----|-------------------------|
--------------5-----5-----|--------------5-----5-----|-------------------------|
--------------6-----6-----|--------------6-----6-----|-------------------------|
--------------------------|--------------------------|-------------------------|
--------------------------|--------------------------|--------2----------2-----|
--5-----5-----------------|--5-----5-----------------|--0----------------------|


  S Q.     S S E.  S E.     S E.  S E.  S E.  S E.     S E.  S E.  S E.  S E.   
-------------------------|--------------------------|--------------------------|
-------------------------|--------------------------|--------------------------|
-------------------------|--------------------------|--------------------------|
-------------------------|--------------------------|--------------------------|
--0----------0-----------|--------------------------|--------------0-----2-----|
-------------------3-----|--3-----3-----3-----3-----|--3-----3-----------------|


  Q    S E.  S Q.     S    S E.  S E.  S E.  S E.     S E.  S E.  S E.  S E.   
------------------------|--------------------------|--------------------------|
------------------------|--------------------------|--------------------------|
------------------------|--------------------------|--------------------------|
------------------------|--------------------------|--------------------------|
-------2-----0----------|--0-----------------------|--------------------------|
------------------------|--------------------------|--------------------------|


  S E.  S Q.     S S E.     S Q.     S S E.  S E.     S E.  S E.  S E.  S E.   
-------------------------|-------------------------|--------------------------|
-------------------------|-------------------------|--------------------------|
-------------------------|-------------------------|--------------------------|
-------------------------|-------------------------|--------------------------|
--0-----2----------2-----|--0----------0-----------|--------------------------|
-------------------------|-------------------3-----|--3-----3-----3-----3-----|


  S E.  S E.  S E.  S E.     Q    S E.  S Q.     S    S E.  S E.  S E.  S E.   
--------------------------|------------------------|--------------------------|
--------------------------|------------------------|--------------------------|
--------------------------|------------------------|--------------------------|
--------------------------|------------------------|--------------------------|
--------------0-----2-----|-------2-----0----------|--0-----------------------|
--3-----3-----------------|------------------------|--------------------------|


  S E.  S E.  S E.  S E  S          
----------------------------||----||
----------------------------||----||
---------------------------*||----||
---------------------------*||----||
----------------------------||----||
--------------------0-------||----||




Guitar 2



     W                   S E.  S H        E.     S E.  S H        E.   
E||-------------------|-----------------------|-----------------------|
B||-------------------|-----------------------|-----------------------|
G||-------------------|-----------------------|-----------------------|
D||-------------------|-----------------------|-----------------------|
A||-------------------|--------0--------------|--0-----0--------------|
E||-------------------|--0--------------------|-----------------------|


  S E.  S H        E.     S E.  S H        E.     S E.  S H        E.   
-----------------------|-----------------------|-----------------------|
-----------------------|-----------------------|-----------------------|
-----------------------|-----------------------|-----------------------|
-----------------------|-----------------------|-----------------------|
--0-----0--------------|--0-----0--------------|--0-----0--------------|
-----------------------|-----------------------|-----------------------|


  S E.  S H        E.     S E.  S H        E.     S E.  S H        E.   
-----------------------|-----------------------|-----------------------|
-----------------------|-----------------------|-----------------------|
-----------------------|-----------------------|-----------------------|
-----------------------|-----------------------|-----------------------|
--0-----0--------------|--0-----0--------------|--0-----0--------------|
-----------------------|-----------------------|-----------------------|


  S E.  S H        E.     S E.  S H        E.     S E.  S H        E.   
-----------------------|-----------------------|-----------------------|
-----------------------|-----------------------|-----------------------|
-----------------------|-----------------------|-----------------------|
-----------------------|-----------------------|-----------------------|
--------0--------------|--0-----0--------------|--0-----0--------------|
--0--------------------|-----------------------|-----------------------|


  S E.  S H        E.     S E.  S H        E.     S E.  S H        E.   
-----------------------|-----------------------|-----------------------|
-----------------------|-----------------------|-----------------------|
-----------------------|-----------------------|-----------------------|
-----------------------|-----------------------|-----------------------|
--0-----0--------------|-----------------------|-----------------------|
-----------------------|--0-----3--------------|--3-----3--------------|


  S E.  S H        E.     S E.  S H        E.     S E.  S H        E.   
-----------------------|-----------------------|-----------------------|
-----------------------|-----------------------|-----------------------|
-----------------------|-----------------------|-----------------------|
-----------------------|-----------------------|-----------------------|
-----------------------|-----------------------|--2-----0--------------|
--3-----3--------------|--3-----3--------------|-----------------------|


  S E.  S H        E.     S E.  S H        E.     S E.  S H        E.   
-----------------------|-----------------------|-----------------------|
-----------------------|-----------------------|-----------------------|
-----------------------|-----------------------|-----------------------|
-----------------------|-----------------------|-----------------------|
--0-----0--------------|--0-----0--------------|--0-----0--------------|
-----------------------|-----------------------|-----------------------|


  S E.  S H        E.     S E.  S H        E.     S E.  S H        E.   
-----------------------|-----------------------|-----------------------|
-----------------------|-----------------------|-----------------------|
-----------------------|-----------------------|-----------------------|
-----------------------|-----------------------|-----------------------|
-----------------------|-----------------------|-----------------------|
--0-----3--------------|--3-----3--------------|--3-----3--------------|


  S E.  S H        E.     S E.  S H        E.     S E.  S H        E.   
-----------------------|-----------------------|-----------------------|
-----------------------|-----------------------|-----------------------|
-----------------------|-----------------------|-----------------------|
-----------------------|-----------------------|-----------------------|
-----------------------|--------0--------------|--0-----0--------------|
--3-----3--------------|--0--------------------|-----------------------|


  S E.  S H        E.     S E.  S H        E.     S E.  S H        E.   
-----------------------|-----------------------|-----------------------|
-----------------------|-----------------------|-----------------------|
-----------------------|-----------------------|-----------------------|
-----------------------|-----------------------|-----------------------|
--0-----0--------------|--0-----0--------------|--------0--------------|
-----------------------|-----------------------|--0--------------------|


  S E.  S H        E.     S E.  S H        E.     S E.  S H        E.   
-----------------------|-----------------------|-----------------------|
-----------------------|-----------------------|-----------------------|
-----------------------|-----------------------|-----------------------|
-----------------------|-----------------------|-----------------------|
--0-----0--------------|--0-----0--------------|--0-----0--------------|
-----------------------|-----------------------|-----------------------|


  S E.  S H        E.     S E.  S H        E.     S E.  S H        E.   
-----------------------|-----------------------|-----------------------|
-----------------------|-----------------------|-----------------------|
-----------------------|-----------------------|-----------------------|
-----------------------|-----------------------|-----------------------|
-----------------------|-----------------------|-----------------------|
--0-----3--------------|--3-----3--------------|--3-----3--------------|


  S E.  S H        E.     S E.  S H        E.     S E.  S H        E.   
-----------------------|-----------------------|-----------------------|
-----------------------|-----------------------|-----------------------|
-----------------------|-----------------------|-----------------------|
-----------------------|-----------------------|-----------------------|
-----------------------|--2-----0--------------|--0-----0--------------|
--3-----3--------------|-----------------------|-----------------------|


  S E.  S H        E.     S E.  S H        E.     S E.  S H        E.   
-----------------------|-----------------------|-----------------------|
-----------------------|-----------------------|-----------------------|
-----------------------|-----------------------|-----------------------|
-----------------------|-----------------------|-----------------------|
--0-----0--------------|--0-----0--------------|-----------------------|
-----------------------|-----------------------|--0-----3--------------|


  S E.  S H        E.     S E.  S H        E.     S E.  S H        E.   
-----------------------|-----------------------|-----------------------|
-----------------------|-----------------------|-----------------------|
-----------------------|-----------------------|-----------------------|
-----------------------|-----------------------|-----------------------|
-----------------------|-----------------------|-----------------------|
--3-----3--------------|--3-----3--------------|--3-----3--------------|


  S E.  S H        E.     S E.  S H        E.     S E.  S H        E.   
-----------------------|-----------------------|-----------------------|
-----------------------|-----------------------|-----------------------|
-----------------------|-----------------------|-----------------------|
-----------------------|-----------------------|-----------------------|
--------0--------------|--0-----0--------------|--0-----0--------------|
--0--------------------|-----------------------|-----------------------|


  S E.  S H        E.     S E.  S Q.     S S E.     S Q.     S S E.  S E.   
-----------------------|-------------------------|-------------------------|
-----------------------|-------------------------|-------------------------|
-----------------------|-------------------------|-------------------------|
-----------------------|-------------------------|-------------------------|
--0-----0--------------|--------2----------2-----|--0----------0-----------|
-----------------------|--0----------------------|-------------------3-----|


  S E.  S E.  S E.  S E.     S E.  S E.  S E.  S E.     Q    S E.  S Q.     S  
--------------------------|--------------------------|------------------------|
--------------------------|--------------------------|------------------------|
--------------------------|--------------------------|------------------------|
--------------------------|--------------------------|------------------------|
--------------------------|--------------0-----2-----|-------2-----0----------|
--3-----3-----3-----3-----|--3-----3-----------------|------------------------|


  S E.  S E.  S E.  S E.     S E.  S E.  S E.  S E.     S E.  S Q.     S S E.   
--------------------------|--------------------------|-------------------------|
--------------------------|--------------------------|-------------------------|
--------------------------|--------------------------|-------------------------|
--------------------------|--------------------------|-------------------------|
--0-----------------------|--------------------------|--0-----2----------2-----|
--------------------------|--------------------------|-------------------------|


  S Q.     S S E.  S E.     S E.  S E.  S E.  S E.     S E.  S E.  S E.  S E.   
-------------------------|--------------------------|--------------------------|
-------------------------|--------------------------|--------------------------|
-------------------------|--------------------------|--------------------------|
-------------------------|--------------------------|--------------------------|
--0----------0-----------|--------------------------|--------------0-----2-----|
-------------------3-----|--3-----3-----3-----3-----|--3-----3-----------------|


  Q    S E.  S Q.     S    S E.  S E.  S E.  S E.   
------------------------|--------------------------|
------------------------|--------------------------|
------------------------|--------------------------|
------------------------|--------------------------|
-------2-----0----------|--0-----------------------|
------------------------|--------------------------|


    S E.  S E.  S E.  S E.     S E.  S H        E.     S E.  S H        E.   
|---------------------------|-----------------------|-----------------------|
|---------------------------|-----------------------|-----------------------|
|*--------------------------|-----------------------|-----------------------|
|*--------------------------|-----------------------|-----------------------|
|---------------------------|--------0--------------|--0-----0--------------|
|---------------------0-----|--0--------------------|-----------------------|


  S E.  S H        E.     S E.  S H        E.     S E.  S H        E.   
-----------------------|-----------------------|-----------------------|
-----------------------|-----------------------|-----------------------|
-----------------------|-----------------------|-----------------------|
-----------------------|-----------------------|-----------------------|
--0-----0--------------|--0-----0--------------|--0-----0--------------|
-----------------------|-----------------------|-----------------------|


  S E.  S H        E.     S E.  S H        E.     S E.  S H        E.   
-----------------------|-----------------------|-----------------------|
-----------------------|-----------------------|-----------------------|
-----------------------|-----------------------|-----------------------|
-----------------------|-----------------------|-----------------------|
--0-----0--------------|--0-----0--------------|--0-----0--------------|
-----------------------|-----------------------|-----------------------|


  S E.  S H        E.     S E.  S H        E.     S E.  S H        E.   
-----------------------|-----------------------|-----------------------|
-----------------------|-----------------------|-----------------------|
-----------------------|-----------------------|-----------------------|
-----------------------|-----------------------|-----------------------|
--------0--------------|--0-----0--------------|--0-----0--------------|
--0--------------------|-----------------------|-----------------------|


  S E.  S H        E.     S E.  S H        E.     S E.  S H        E.   
-----------------------|-----------------------|-----------------------|
-----------------------|-----------------------|-----------------------|
-----------------------|-----------------------|-----------------------|
-----------------------|-----------------------|-----------------------|
--0-----0--------------|-----------------------|-----------------------|
-----------------------|--0-----3--------------|--3-----3--------------|


  S E.  S H        E.     S E.  S H        E.     S E.  S H        E.   
-----------------------|-----------------------|-----------------------|
-----------------------|-----------------------|-----------------------|
-----------------------|-----------------------|-----------------------|
-----------------------|-----------------------|-----------------------|
-----------------------|-----------------------|--2-----0--------------|
--3-----3--------------|--3-----3--------------|-----------------------|


  S E.  S H        E.     S E.  S H        E.     S E.  S H        E.   
-----------------------|-----------------------|-----------------------|
-----------------------|-----------------------|-----------------------|
-----------------------|-----------------------|-----------------------|
-----------------------|-----------------------|-----------------------|
--0-----0--------------|--0-----0--------------|--0-----0--------------|
-----------------------|-----------------------|-----------------------|


  S E.  S H        E.     S E.  S H        E.     S E.  S H        E.   
-----------------------|-----------------------|-----------------------|
-----------------------|-----------------------|-----------------------|
-----------------------|-----------------------|-----------------------|
-----------------------|-----------------------|-----------------------|
-----------------------|-----------------------|-----------------------|
--0-----3--------------|--3-----3--------------|--3-----3--------------|


  S E.  S H        E.     S E.  S H        E.     S E.  S H        E.   
-----------------------|-----------------------|-----------------------|
-----------------------|-----------------------|-----------------------|
-----------------------|-----------------------|-----------------------|
-----------------------|-----------------------|-----------------------|
-----------------------|--------0--------------|--0-----0--------------|
--3-----3--------------|--0--------------------|-----------------------|


  S E.  S H        E.     S E.  S H        E.     S E.  S H        E.   
-----------------------|-----------------------|-----------------------|
-----------------------|-----------------------|-----------------------|
-----------------------|-----------------------|-----------------------|
-----------------------|-----------------------|-----------------------|
--0-----0--------------|--0-----0--------------|--------0--------------|
-----------------------|-----------------------|--0--------------------|


  S E.  S H        E.     S E.  S H        E.     S E.  S H        E.   
-----------------------|-----------------------|-----------------------|
-----------------------|-----------------------|-----------------------|
-----------------------|-----------------------|-----------------------|
-----------------------|-----------------------|-----------------------|
--0-----0--------------|--0-----0--------------|--0-----0--------------|
-----------------------|-----------------------|-----------------------|


  S E.  S H        E.     S E.  S H        E.     S E.  S H        E.   
-----------------------|-----------------------|-----------------------|
-----------------------|-----------------------|-----------------------|
-----------------------|-----------------------|-----------------------|
-----------------------|-----------------------|-----------------------|
-----------------------|-----------------------|-----------------------|
--0-----3--------------|--3-----3--------------|--3-----3--------------|


  S E.  S H        E.     S E.  S H        E.     S E.  S H        E.   
-----------------------|--------------