Gametabs
Home
Tabs
Random

Mandolin de Chocobo

Average rating: 5.000

1 ratings

Composer:

Tabber:

Style:

Instrument:

Created: May 15, 2010 at 12:00 AM

            Chocobo Theme (Mandolin de Chocobo)
Final Fantasy Series 
Composed by Nobuo Uematsu
Tabbed by Rob Van
5/14/10

E|-----------------------------------------------------0-1-|
A|-5---2-----5-2---2-----2---0-----0---------------2-5-----|
D|-------5-2-----5----5--------5-5---5-3-5---3-5-5---------|
G|---------------------------------------------------------|

E|-----------------------------------------------------0-1-|
A|-5---2-----5-2---2-----2---0-----0---------------2-5-----|
D|-------5-2-----5----5--------5-5---5-3-5---3-5-5---------|
G|---------------------------------------------------------|


E|-0-------------0----3------------------------------------|
A|-----3-0---0-3---5-----5---2-3-0-------0-3-2-2-3-2-0-2---|
D|---------4-----------------------4-0-4-------------------|
G|---------------------------------------------------------|

E|-0-------------0----3----------------------------------0---2------3-|
A|-----3-0---0-3---5-----5---2-0-0-2-0---0-----0-0-2-3-5--------------|
D|---------4---------------------------5-----5------------------------|
G|--------------------------------------------------------------------|

        
Comments

No comments yet