Gametabs
Home
Tabs
Random

Sound of Grief

Average rating: 5.000

2 ratings

Composer:

Tabber:

Style:

Instrument:

Created: February 22, 2014 at 12:00 AM

            Title: Sound of Grief
SubTitle: Corpse Party: Blood Covered
Artist: Mao Hamamoto
Tabber: Mitch Jackson
Tempo = 84
T/S = 4/4

                                                      
                                                               ^
     E  E  E  E  H                E  E  E  E  H                E  E  E  Q.       Q          E  E  E  Q        E  E     
D |--------0-------------------|--------0-------------------|--------0-----------8-------|--5-----0--------------5----|
A |-----------6--L-------------|-----------6--L-------------|--5--------6----------------|-----------6--------8-------|
D#|-----4----------------------|-----5----------------------|--7-------------------------|-----5----------------------|
C |--0-------------------------|--0-------------------------|--7--7----------------------|--0-------------------------|
G |----------------------------|----------------------------|--5-------------------------|----------------------------|
C |----------------------------|----------------------------|----------------------------|----------------------------|

                                                         
                                                                ^
     E  E  E  Q.       E..  T      E  E  E  E  H                E  E  E  Q.       Q          E  E  E  Q.       E  E     
  |--0-----0----------------3s--|--5-----0-------------------|--------0-----------8-------|--5-----0--------------5----|
  |-----------6--------1--------|-----------6--L-------------|--5--------6----------------|-----------6--------8-------|
  |-----4-----------------------|-----5----------------------|--7-------------------------|-----5----------------------|
  |--0--------------------------|--0-------------------------|--7--7----------------------|--0-------------------------|
  |-----------------------------|----------------------------|--5-------------------------|----------------------------|
  |-----------------------------|----------------------------|----------------------------|----------------------------|


                                                                ^                
     E  E  E  Q     E  E  E       E  S S E  E  H                E  E  E  Q.       Q          E  E  E  Q.       E  E     
  |--8-----0-----------0--3----|--3------0-------------------|--------0-----------8-------|----------------------------|
  |-----------6-----1----------|-----6p5-6--6--L-------------|--5--------6----------------|--10----------------8--10---|
  |-----4----------------------|-----5-----------------------|--7-------------------------|-----------9----------------|
  |--0-------------------------|--0--------------------------|--7--7----------------------|--------10------------------|
  |----------------------------|-----------------------------|--5-------------------------|-----8----------------------|
  |----------------------------|-----------------------------|----------------------------|--8-------------------------|

                                                     
                                                                ^
     E  E  E  Q.       E..  T      E  E  E  E  H                E  E  E  Q.       Q          E  E  E  Q.       E  E     
  |--0-----0--------------------|----------------------------|--------0-----------8-------|----------------------------|
  |-----------6-------------8s--|--10------------------------|--5--------6----------------|--10----------------8--10---|
  |-----4--------------7--------|-----------9--L-------------|--7-------------------------|-----------9----------------|
  |--0--------------------------|--------10------------------|--7--7----------------------|--------10------------------|
  |-----------------------------|-----8----------------------|--5-------------------------|-----8----------------------|
  |-----------------------------|--8-------------------------|----------------------------|--8-------------------------|

                                                                              
                                                                   v
     E  E  E  Q     E  E  E       E  S  S  E  E  H                 E  E  E  E  E  E  E  E       E  E  E  E  E  E  E  E     
  |--8-----0-----------0-------|-------------------------------||-----------5--5--3--3--1----|--1--0--0-------------------|
  |-----------6-----------8----|--8----------------------------||--3--3--3-------------------|-----------3--3--------1----|
  |-----4-----------7----------|-----12s11-12-9--L-------------||o-0--------0----------------|-----------0-----4--4-------|
  |--0-------------------------|-----------10------------------||o-2-----2-------------------|--------2-------------------|
  |----------------------------|-----8-------------------------||--0--0----------------------|-----1----------------------|
  |----------------------------|--8----------------------------||--0-------------------------|--0-------------------------|

                                                      
                                                     DA CAPO
     E  E  E  E  E  E  E  E       E  E  E  E  H                W
  |-----5--5--3--3--1--1-------|--0--1--0--1--0------------||--L-------------------------|
  |-----------------------3----|---------------------------||----------------------------|
  |-----------0----------------|-----------0--------------o||--L-------------------------|
  |--------2-------------------|--------2-----------------o||--L-------------------------|
  |-----0----------------------|-----1---------------------||--L-------------------------|
  |--0-------------------------|--0------------------------||--L-------------------------|


        
Comments

No comments yet