Gametabs
Home
Tabs
Random

Sore wa Chiisana Hikari no Youna

Average rating: 4.667

3 ratings

Composer:

Tabber:

Style:

Instrument:

Created: March 29, 2016 at 12:00 AM

            Sore wa Chiisana Hikari no Youna
AKA Ending theme
Song by Sayuri
Arranged by John Lee
Capo 1

Read notes for information about artificial harmonics.

     Q    E  Q    E     Q    E  Q    E     Q    E  Q    E     Q    E  E  E  E   
E||-------0----------|-------0----------|-------0----------|-------------------|
B||----------3----1--|----------3----1--|----------3----1--|----------0--1--3--|
G||--2---------------|--2---------------|--2---------------|--2----2-----------|
D||--2---------------|------------------|--2---------------|-------------------|
A||------------------|--0---------------|------------------|--0----------------|
E||------------------|------------------|------------------|-------------------|


  H        Q       H        Q       H        Q       H        Q       H        Q     
--0--------3----|--2-------------|--0--------3----|--2-------------|--0--------3----|
----------------|-----------3----|----------------|-----------3----|----------------|
--2-------------|--2-------------|--2-------------|--2-------------|--2-------------|
----------------|----------------|----------------|----------------|----------------|
----------------|----------------|--0-------------|----------------|--3-------------|
--0-------------|--0-------------|----------------|--2-------------|----------------|


  H        Q       Q    Q    Q       H        Q       H        Q       H        Q     
--5--------3----|--2----3----2----|--0-------------|--0--------3----|--5--------3----|
----------------|-----------------|--0--------3----|--1-------------|--5-------------|
----------------|-----------------|--1-------------|--0-------------|--5-------------|
----------------|-----------------|----------------|----------------|----------------|
--5-------------|--2--------------|----------------|----------------|----------------|
----------------|-----------------|----------------|----------------|----------------|


                                                                         NH     AH     AH
  Q    Q    Q       Q    H           Q    E  E  Q       H.               Q      Q      Q     
--2----3----2----|--0-------------|--2----0-----0----|--L------------|--<7>------------------|
--3--------------|-------3--------|--0-------3--0----|--L------------|-----------------------|
--2--------------|--2-------------|-------------1----|--L------------|---------<2:7>--<1:6>--|
-----------------|----------------|------------------|---------------|-----------------------|
-----------------|----------------|------------------|---------------|-----------------------|
-----------------|----------------|------------------|---------------|-----------------------|


   NH                                                                                        
   Q      E  E  E  E     Q    Q.     E     Q    Q.     E     Q    Q    Q       Q    Q.     E   
--<12>----------------|--0----0------3--|--2----2---------|--0----0----3----|--2----2---------|
-------------0--1--3--|--1--------------|--3-----------3--|--0--------------|--3-----------3--|
----------2-----------|-----------------|-----------------|-----------------|-----------------|
----------------------|-----------------|-----------------|-----------------|-----------------|
----------------------|--0--------------|--0--------------|--0--------------|--0--------------|
----------------------|-----------------|-----------------|-----------------|-----------------|


  Q    Q    Q       H        Q       Q    Q    Q       H        Q       Q.     E  Q     
--0----0----3----|--5--------3----|--2----0----0----|--L-------------|--0---------0----|
--1--------------|--0-------------|--0---------0----|--L--------3----|--1------3-------|
-----------------|----------------|------------1----|--L--------1----|--0--------------|
-----------------|----------------|--2--------------|----------------|-----------------|
-----------------|--0-------------|-----------------|----------------|-----------------|
--3--------------|----------------|-----------------|----------------|-----------------|


  Q    Q.     E     Q.     E  Q       E  E  Q    Q       Q    Q    Q       Q    Q    Q     
--2----0------2--|--3------2--0----|-----0--2----L----|--L---------0----|--2----0---------|
--3--------------|--3--------------|--4---------------|-------4---------|--4---------4----|
--2--------------|--2--------------|--4----------4----|--L----4---------|--4---------4----|
-----------------|-----------------|--4---------------|-------4---------|------------4----|
-----------------|-----------------|------------------|-----------------|-----------------|
-----------------|-----------------|------------------|-----------------|-----------------|


  E  E  E  Q    E     E  E  Q.     E     E  E  E  E  E  E     E  E  Q    Q     
--0--0--0--0----0--|--------7---------|--0--0--0--0--0--0--|--------7----0----|
--2----------------|--4--5---------4--|--2-----------------|--4--5-------0----|
--1----------------|--4---------------|--2-----------------|--4---------------|
-------------------|--6---------------|--------------------|--6---------------|
-------------------|------------------|--------------------|------------------|
-------------------|------------------|--------------------|------------------|


  E  E  Q.     E     Q    Q    Q       Q    Q    Q       Q    Q.     E     E  E  Q.     E   
--0-----0------0--|-------0----2----|--5----4---------|--4-----------7--|--7------------7--|
--2--4------------|--0--------------|--5---------7----|--5----5---------|--8--8--8---------|
--2---------------|-----------------|--4--------------|--4--------------|--9---------------|
------------------|--1--------------|-----------------|-----------------|------------------|
------------------|-----------------|-----------------|-----------------|------------------|
------------------|-----------------|-----------------|-----------------|------------------|


  Q    Q.     E     E  E  Q    Q       Q    Q    Q       Q    E  E  Q       Q    Q    Q     
--5-----------5--|--3--2--0----0----|--0----2----3----|--3----2--0--2----|--L----2----4----|
--7----7---------|--1---------------|--1--------------|--0----------0----|--L--------------|
--5----5---------|--2---------------|--2--------------|------------------|-----------------|
-----------------|------------------|-----------------|------------------|-----------------|
-----------------|------------------|-----------------|------------------|-----------------|
-----------------|------------------|-----------------|------------------|-----------------|


  Q    E  E  Q       Q    Q    Q       E  E  E  E  E  E     E  E  Q    Q     
--5----4-----4----|--L----4----2----|--0--0--0--0--0--0--|-----0--7----7----|
--4-------7--4----|--L--------------|--2-----------------|--4-----0---------|
--5----------5----|--L--------------|--1-----------------|------------------|
------------------|-----------------|--2-----------------|--6---------------|
------------------|-----------------|--------------------|--6---------------|
------------------|-----------------|--------------------|------------------|


  E  E  Q    Q       E  E  Q    Q       E  E  Q.     E     E  E  Q    Q       E  E  H         
--7--5--4----2----|--0--2--4----0----|--0-----0------0--|--------0----2----|--5--4--0--------|
--0---------------|--0---------------|-----3------------|--0--0------------|--5-----0--------|
------------------|------------------|--2---------------|------------------|--2--------------|
------------------|--2---------------|--2---------------|------------------|--------2--------|
------------------|------------------|------------------|--2---------------|-----------------|
------------------|------------------|------------------|------------------|-----------------|


  Q    Q    Q       Q    E  E  Q       Q    Q    Q       E  E  Q    Q       H        Q     
--L----0----2----|--3----2--0--0----|--L----2----3----|--5---------------|-----------0----|
--L---------3----|--1---------------|-----------------|-----8--7----7----|--L-------------|
-----------------|--0---------------|-----------------|--7---------------|----------------|
--L----2----4----|------------------|-----------------|--7---------------|----------------|
-----------------|------------------|-----------------|------------------|----------------|
-----------------|------------------|-----------------|------------------|----------------|


  H.              H        Q       H        E  E     H.              H.            
--0------------|--0--------3----|--3--------L--0--|--0------------|--L------------|
--1------------|--1-------------|--1--------L-----|--0------------|--L------------|
--2------------|--2-------------|--0--------L-----|--1------------|--L------------|
--2------------|--2-------------|-----------------|--2------------|--L------------|
---------------|----------------|-----------------|---------------|---------------|
---------------|----------------|-----------------|---------------|---------------|


   NH   NH   AH    NH    NH        AH
   E    E    E     E     Q         H.                     
--<5>--<7>-------<12>----------|-----------------|-------||
-----------------------<12>----|-----------------|-------||
------------<2:7>--------------|--<1>:6----------|-------||
-------------------------------|-----------------|-------||
-------------------------------|-----------------|-------||
-------------------------------|-----------------|-------||

notes:
 where n is left hand, m is right hand. See more about artificial harmonics on internet.


Duration Legend
---------------
W - whole
H - half
Q - quarter
E - 8th
. - note dotted


Tablature Legend
----------------
L - tied note
NH - natural harmonic
AH - artificial harmonic

        
Comments

@Hugo244 (April 06, 2016 at 11:51 AM)

Exactly like one of my favourite anime ending songs.