Pure Smile (Sword of Mana) Guitar Tab

Submitted: May 17, 2009 by auriplane (Last updated: Feb 03, 2010)

5
Average: 5 (2 votes)
Download | Listen
Game: Sword of Mana
Composer(s): Kenji Ito
Style: Arrangement, Fingerstyle
Series: Mana

AutoScroll: Slow | Medium | Fast
                    Sword of Mana - Pure Smile GUITAR TAB
                               Song by Kenji Ito

                   Tabbed by auriplane ([email protected])
                                  On 5/16/2009

e |----------------|--------0-------|2---0-----------|----------------|
B |2-----------3---|----------------|--------3---2---|----------------|
G |--------2-------|----2-------2---|----------------|----------------|
D |----2-----------|4---------------|0---------------|--------2h4p2---|
A |0-----------2---|--------4-------|----4---2---0---|----------------|
E |----------------|----------------|----------------|----------------|

e |----------------|----------------|----------------|----------------|
B |2---------------|3-----------2---|0-----0-----3-2-|----------------|
G |------------2---|--------2-------|----2-----------|----------------|
D |----2-----------|----4-----------|--------2-------|----2-------2---|
A |--------4-------|2---------------|----2-------2---|0---------------|
E |5---------------|----------------|0---------------|--------4-------|

e |----------------|----------------|----------------|----------------|
B |----------------|0---------------|--------------0-|----------------|
G |2---------------|------------2---|1-----1-----2---|----------------|
D |------------4---|----0---4-------|----4---2-------|----4---2---0---|
A |----0---4-------|2---------------|----2-------2---|----------------|
E |2---------------|----------------|0---------------|0---------------|

e |----------------|------------2---|0---------------|--------4-------|
B |2---------------|3---------------|----3-2-----0-2-|----2-----------|
G |------------2---|--------2-------|----------------|------------1---|
D |----2-----------|----4-----------|----2-------2---|----------------|
A |--------4-------|2---------------|--------2-------|4---------------|
E |5---------------|----------------|0---------------|----------------|

e |5---4-2-----0-2-|----0-----------|----0-----------|----------------|
B |----2-----------|------3-----2---|----------------|------------0---|
G |------------2---|--------2-------|------------2---|1---------------|
D |--------2-------|----4-------4---|--------0-------|2-------2-------|
A |----------------|2---------------|----2-----------|----------------|
E |2---------------|----------------|0---------------|----------------|

e |2---0-2-----4-0-|----------------|------------0---|----------------|
B |--------2-------|----------------|3---2-3-------2-|----------------|
G |----2-------2---|--------2-------|--------2-------|--------1-------|
D |0---------------|----2-------2---|----2-------2---|----2-------2---|
A |----------------|4---------------|2---------------|0---------------|
E |----------------|----------------|----------------|----------------|

e |----------------|------0-----2---|----------------|5---4-2-----4-0-|
B |0-----0-----3-2-|----3-----------|----3-----------|----------------|
G |----2-------2---|----------------|--------2-------|----------------|
D |--------4-------|----4-----------|----4-------0---|1---------------|
A |----2-----------|------------1---|2---------------|----------------|
E |3---------------|2-------4-------|----------------|----------------|

e |----------------|2---0-----------|----------------|----------------|
B |--------2-------|------3-----2-3-|----------------|2---------0-----|
G |----1-------1---|----------------|--------4-------|----2---2-------|
D |----------------|0---------------|----4-------4---|----------------|
A |4---------------|--------4-------|2---------------|----------------|
E |----------------|----------------|----------------|0---------------|

e |----------------|
B |----------------|
G |2---------------|
D |2---------------|
A |0---------------|
E |----------------|
Login or Register to remove this ad.

1 comment on Pure Smile

Shiny...

Very shiny. I'll leanr it after I finish my Alundra Tab... ^_^

Along with a rating... though it's getting a 5 anyway :P