Ads

Endless Battlefield (Sword of Mana) Guitar Tab

Submitted: Mar 21, 2016 by PeanutReaper486

5
Average: 5 (1 vote)
Download | Listen
Game: Sword of Mana
Composer(s): Kenji Ito
Style: Alternate picking, Transcription
Series: Mana

AutoScroll: Slow | Medium | Fast
Endless Battlefield
Sword of Mana
Game Boy Advance
Tabbed by PNUT
Composed by Kenji Ito
3/19/2016

E|------------------12v-----------------------------------------------
B|--------------13----------------15--13--12---------12--13--12-------
G|--14------14-----------------------------------12-------------------
D|------14-------------------------------------------------------14v--
A|--------------------------------------------------------------------
E|--------------------------------------------------------------------


E|------------------12v----------------------------12--15--14--13--12--16v--
B|--------------13-------------15--13--12--13--15---------------------------
G|--14------14--------------------------------------------------------------
D|------14------------------------------------------------------------------
A|--------------------------------------------------------------------------
E|--------------------------------------------------------------------------


E|--17--15--------------------------17--15--12--13--14--15-------
B|----------18--17--15v-----17--18--------------------------13v--
G|---------------------------------------------------------------
D|---------------------------------------------------------------
A|---------------------------------------------------------------
E|---------------------------------------------------------------


E|----------------------------------------------------------
B|--15--13--12---------13--12-------------------------------
G|--------------14-------------14--12--16--14--13--12--14v--
D|----------------------------------------------------------
A|----------------------------------------------------------
E|----------------------------------------------------------


E|-----------------------------12------15--12-----------------------15-------
B|--------------12--13--15---------15----------15--13-----13h15-12------15v--
G|--14--12--14---------------------------------------------------------------
D|---------------------------------------------------------------------------
A|---------------------------------------------------------------------------
E|---------------------------------------------------------------------------


E|------------------------------------------------12------12--14--12v--
B|--12h13h15p13p12--------12--13--12------13--15------16---------------
G|-----------------12-14--------------12-------------------------------
D|---------------------------------------------------------------------
A|---------------------------------------------------------------------
E|---------------------------------------------------------------------


E|-----------------------
B|--15-13-12-13-12-------
G|-----------------14-13-
D|-----------------------
A|-----------------------
E|-----------------------
Login or Register to remove this ad.