Ads

Yume Sekai (Sword Art Online) Guitar Tab

Submitted: Aug 15, 2015 by Conbow2000

0
Download | Listen
Game: Sword Art Online
Composer(s): Aoi Eir
Style: Transcription

This song is also called Ending Theme 2

AutoScroll: Slow | Medium | Fast
Yume Sekai
Sword Art Online
Tomatsu Haruka
Conbow2000
8/12/15

E|------------------3--4--6--8--6--4--3-----3--4--3-----3--4--6--8--6--4--3--4--6-
B|--4--6--4--3--4-----------------------6-----------6---------------------------6-
G|--------------------------------------------------------------------------------
D|--------------------------------------------------------------------------------
A|--------------------------------------------------------------------------------
E|--------------------------------------------------------------------------------

E|-----9--8--6--4--3---------------------------3--------3-----------------
B|--4-----------------6--4-----3--4--6--6--4------4--------4--4--3--4--4--
G|--------------------------3---------------------------------------------
D|------------------------------------------------------------------------
A|------------------------------------------------------------------------
E|------------------------------------------------------------------------
							
E|---------------------------------------------------------------
B|-----------------4---------------------------3-----3-----------
G|--0--3--------0--------------------5--4--5-----5-----5--5--3---
D|--------3--0--------3--6--5--3---------------------------------
A|---------------------------------6-----------------------------
E|---------------------------------------------------------------

E|------------------------------------------------------------------------------------
B|------------------------------------------------------------------------------------
G|------------------------------------------------------------------------------------
D|--1--1--0--1--3--0--1---------------------------------------1--1--1--0--1--3--0--1--
A|-----------------------6--5--3-----3--5--6--3--6------------------------------------
E|--------------------------------6-----------------7--6--4---------------------------

E|--------------------------------------------------------------------------------------------
B|--------------------------------------------------------------------------------------------
G|-----------------------------------------0--0--0--1--0-----------0--1--0--------0--0--0--1--
D|--1--0-----------0--1-----1-----1--3--------------------3--1--3-----------3--1--------------
A|--------3--1--3--------3-----3--------3-----------------------------------------------------
E|--------------------------------------------------------------------------------------------

E|-----------------------------------------------------------------------
B|-----------------------------------------------------------------------
G|--0--------------------------0--0--0--1--0-----------0--1--0-----------
D|-----3--1--3--1--------1--------------------3--1--3-----------3--------
A|------------------1--3-----3--------------------------------------1--3-
E|-----------------------------------------------------------------------


E|----------------------------------------------
B|-----------------------------------------1----
G|--------------------------------------------3-
D|-----------1--------1------1---1---3--1-------
A|--1--3--------3--------3---1------------------
E|-----------4--------4-------------------------


E|-----1-----------3--4--6--8--6--4--3-----3--4--3-----3--4--6--8--6--4--3--1--9--8--6--4--3--
B|--4-----4--3--4-----------------------6-----------6-----------------------------------------
G|--------------------------------------------------------------------------------------------
D|--------------------------------------------------------------------------------------------
A|--------------------------------------------------------------------------------------------
E|--------------------------------------------------------------------------------------------

E|--1--------------1--3--1--1--3-----3---------------------------3------3-----------------
B|-----4-----3--4----------------4-----4-----4--4--3--4--1---------4-----4--4--3--4--4----
G|--------3-------------------------------------------------3--2--------------------------
D|----------------------------------------------------------------------------------------
A|----------------------------------------------------------------------------------------
E|----------------------------------------------------------------------------------------
Login or Register to remove this ad.