Ads

A Tiny Love (Sword Art Online) Ukulele Tab

Submitted: May 05, 2015 by CandyCane52

3.666665
Average: 3.7 (3 votes)
Download | Listen
Game: Sword Art Online
Composer(s): Aoi Eir
Style: Transcription

AutoScroll: Slow | Medium | Fast
A Tiny Love
Sword Art Online
Yuki Kajiura
CandyCane52
24/04/2015

 :00				    :10
G------------------------------------------------------------------
C-----5--------0------5--------0-------5-------------------------2-
E-----5--5-----5------5--5-----5-------5--1------6--5--3-3----0--2-
A-0-3-5----5-8-7--0-3-5----5-8-7---0-3-5----1-5-10--8--7-5--0------
 :20						     :34
G--------------------------------------------------------10-0-0-----------
C-----5--------0---------5--------0--------7--7------10-------------------
E-----5--5-----5---------5--5-----5--0-----6----6---------------------3-1-
A-0-3-5----5-8-7--10-8-7-5----5-8-7----0-3-5------5--10--0--7-5--1-0------
 :40				    :50
G--------------0------------------------------------0------------------
C-------5---------0-----2----1---2--------5---------5--0----2--2---2-1-
E-1-----5------1----1---1------3-1--1-----5---------5-------0----0---0-
A---0-5-8--7-8-3------3-1--1-0---0----0-5-8--8-7-8--5----0--0--------0-
 1:00		  1:04		    1:10
G-----------------------------------------0--0----------10--0-----------0-----9----------
C-----5--------7--------5--------9------------------10--10-----5-----------------------2-
E-----5--------8--3-----5--------8--3-----6----6----10--10--------1-----8-------------0--
A-0-3-5--0-5-8-7----0-3-5--5-7-8-7----0-3-5------5--10------7--5----1-5-7--8--10--12-0---
Login or Register to remove this ad.

1 comment on A Tiny Love

5 stars :)

5

5 stars :)