Ads

Tender Feeling (Sword Art Online) Ukulele Tab

Submitted: May 05, 2015 by CandyCane52

3
Average: 3 (2 votes)
Download | Listen
Game: Sword Art Online
Composer(s): Aoi Eir
Style: Transcription

AutoScroll: Slow | Medium | Fast
Tender Feeling
Sword Art Online
Yuki Kajiura
CandyCane52
24/04/2015

I
 :05/:59
G--------------------------------------------------------------------------
C--------------------------------------1-----------------------------------
E-(0)-------5--0--------4--0--4-----2-----2--4--------------5--5---------5-
A-----0--2--4-----0--7--2--------7--0-----------0--0--5--7--9-----5--12--7-
 :15				   :21					 	IV
G------------------------------------------------------------------------ 	--------
C----------------------------------2--2--2-----------------------------4- 	----1---
E-0--------7--2--------7-----5-----2--------0--2--4--------0--0--0--2--4- 	-----0--
A----0--4--5-----2--4--5--4--2--0--------------------0--2--0------------- 	-4----0-
II
 :28
G-------------------------------------------------------------------------------------------------------
C----------------------------------1--------------------------------------------------------------------
E-------5--0--------4--0--4-----2-----2--4--------------5--5---------5--0--------7--2--------7-----5----
A-0--2--4-----0--7--2--------7--0-----------0--0--5--7--9-----5--12--7-----0--4--5-----2--4--5--4--2--0-
 :43
G---------------------------------------------------------------------------------------------------------
C-2--2--2-----------------------------------------------------------2--2--2-----------------------------4-
E-2--------0--2--4--------7--0--0--2--4--------5--0--------5--------2--------0--2--4--------0--0--0--2--4-
A-------------------0--2--5-----------4--5--7--5-----0--2--4--2--0--------------------0--2--0-------------

I II I IV
Login or Register to remove this ad.