Ads

Swordland (Sword Art Online) Guitar Tab

Submitted: Oct 27, 2014 by Berga

4.333335
Average: 4.3 (3 votes)
Download | Listen
Game: Sword Art Online
Composer(s): Aoi Eir
Style: Arrangement, Fingerstyle

AutoScroll: Slow | Medium | Fast
#----------------------------------PLEASE NOTE---------------------------------#
#This file is the author's own work and represents their interpretation of the #
#song. You may only use this file for private study, scholarship, or research. #
#------------------------------------------------------------------------------##

Arranged for guitar by Berga
Based on the work of noah.lindsey.50
http://musescore.com/user/164205/scores/162279

That's not a final version, feel free to edit this tab.
I'd appreciate if you send me any suggestions/edits at aaa95aaa[at]yahoo[dot]it.

                                   
								   SWORDLAND


Acoustic Guitar (steel) (E A D G B E)

  Q=61
 4/4
  Gtr I

  Q  Q  Q  Q    E. S +H     E E
|-------0--3--|-2---------------|
|----0-----5--|----0-(0)----0h5-|
|-------0--0--|-----------------|
|----2--2-----|-4---------------|
|----2--------|----2-(2)--------|
|-0-----------|-0---------------|

                                   ^     v
  E.      S     +E  E E.    S  +E  E     Q    E  E  Q    E E
|-3-------2-----(2)-0-2-----3--(3)-5---|-7-----------------7-|
|----------------------------------5---|-7---------------5---|
|----------------------------------5---|-8-------------------|
|----5-------4------2----4------5--7-7-|-9-------------------|
|----------------------------------7---|-9-----------------7-|
|-3-------------------0------------5---|-7----3--2--0--------|
     S.      S.     S    S.     S.   S  
 
                                  #love this...
   E.  S  +E  E E.S  E   E    Q  S S S  S Q  S S S S
|-12--11-(11)-9-8h9-(9)-11-|--9----------------------|
|-12-----------------------|--9----------------------|
|-12-----------------11----|-11--------------------2-|
|-14-----------------------|-11-----------2------2---|
|---------------6----------|--9-----------0--4-------|
|-12-----------------------|--9----9---11------------|


  Q  +S  S S S Q  +S  S S S
|---------------------------|
|---------------------------|
|-1--(1)------------------1-|
|-2--(2)---4-2-4--(4)---4---|
|-2--(2)-------2--(2)-------|
|-0--(0)--------------------|
                              #... until here v
                          T       T      T
  Q  +S  S S S Q  Q    Q  Q       Q      Q        Q  S E S  Q   +S   E  S
|--------------------|----9(21)--11(23)--8(20)--|-6--6-6-8--9---(9)-14-18--|
|--------------------|--------------------------|--------------------------|
|-2--(2)---1------2--|-1------------------------|----------10--------------|
|-2--(2)-----4-2-----|--------------------------|-8----8---11--(11)--------|
|-4--(4)-------------|--------------------------|----------11--------------|
|--------------0-----|-4------------------------|-6---------9--------------|


  Q  +S  E S Q  +S  E S   Q  +S  E S Q  +S  E S
|-4--(4)----------------|--------4-6-7--(7)-9p7-|
|--------7-6-4--(4)-4h6-|-7--(7)----------------|
|-5----------5----------|------------4--(9)-6---|
|-6----------6----------|-----------------------|
|------------6--(6)-6---|-9--(9)----------------|
|-4----------4----------|-7----------0--(0)-----|

# I don't really like this part, I haven't realize the idea that came in my mind properly.
# Feel free to find something better.

               T      T      T     T         T
  Q  Q  H      Q      Q      E.    S     +E  E
|-6--4--6----|-1(13)---------4(16)-3(15)-(3)-4(16)--|
|------------|--------1(13)-------------------------|
|------------|--------------------------------------|
|-8--6--8----|--------------------------------------|
|-------8----|-3------------------------------------|
|-6-----6----|--------------------------------------|


  T     T     T      T     T     T     T       T     T     T      T     T         T
  E.    S     Q      E.    S     E     E       E.    S     Q      E.    S     +E  E
|-4(16)--------------------------------4(16)-|-4(16)-3(15)-3(15)--------3(15)-(3)-6(18)-|
|--------------------------6(18)-6(18)-------|--------------------4(16)-----------------|
|-------6(18)-6(18)--6(18)-------------------|------------------------------------------|
|--------------------------------------------|------------------------------------------|
|--------------------------------------------|------------------------------------------|
|-4------------------------------------------|-6----------------------------------------|


  T     T     T      T     T     T     T       T     T     T          T     T     T
  E.    S     Q      E     E     E     E       E.    S     Q      +E  E     E     E
|-6(18)-8(20)-8(20)--8(20)-6(18)-------------|-4(16)------------------4(16)-3(15)-4(16)--|
|--------------------------------9(21)-8(20)-|-------------------------------------------|
|--------------------------------------------|-------6(18)-6(18)--(6)--------------------|
|--------------------------------------------|-------------------------------------------|
|--------------------------------------------|-------------------------------------------|
|-3------------------------------------------|-4-----------------------------------------|


  T     T     T     T     T          T      T      T     T     T     T
  E.    S     E     E     H          Q      Q      E.    S     E     E
|-6(18)-8(20)-8(20)-6(18)----------|---------------------------------------|
|-------------------------9(21)----|-6(18)--6(18)--9(21)-6(18)-6(18)-9(21)-|
|----------------------------------|---------------------------------------|
|----------------------------------|---------------------------------------|
|----------------------------------|---------------------------------------|
|-6--------------------------------|-4-------------------------------------|


  T      T      T      T        T       T     T
  Q      Q      Q      Q        Q.      E     H
|-----------------------------|------------------------|
|-9(21)--8(20)--6(18)--8(20)--|-6(18)---5(17)-5(17)----|
|-----------------------------|------------------------|
|-----------------------------|------------------------|
|-----------------------------|---------------0--------|
|-6---------------------------|-3-------------0--------|


  W          W          Q  Q  Q  Q    E. S +E  E E.S +E  E
|----------|----------|-------0--3--|-3--2-(2)-0-2h3-(3)-5--|
|----------|----------|----0-----5--|--------------------5--|
|----------|----------|-------0--0--|--------------------5--|
|----------|----------|----2--2-----|-5--------2-4-------7--|
|----------|----------|----2--------|--------------------7--|
|----------|----------|-0-----------|-3----------0-------5--|


  Q   E E Q  E E    E.  S  +E  E E.S  E   E   Q  S S S  S Q  S S S S
|-7------------7-|-12--11-(11)-9-8h9-(9)-11-|-9-----------------------|
|-7----------5---|-12-----------------------|-9-----------------------|
|-8--------------|-12-----------------11----|----------------------2--|
|-9--------------|-14-----------------------|-------------2------2----|
|-9------------7-|---------------6----------|-------------0--4--------|
|-7---3s2-0------|-12-----------------------|-9----9---11-------------|

  Q  +S  S S S Q  +S  S S S   Q  +S  S S S Q  Q    Q   Q   Q   Q
|---------------------------|--------------------|-----9--11---8--|
|---------------------------|--------------------|-------------8--|
|-1--(1)------------------1-|-2--(2)---1------2--|-1-----------9--|
|-2--(2)---4-2-4--(4)---4---|-2--(2)-----4-2-----|----11--13--10--|
|-2--(2)-------2--(2)-------|-4--(4)-------0-----|-1--------------|
|-0--(0)-------2------------|-0------------0-----|-1--------------|

   Q     S  E  S  Q     +S   E  S
|---------------------------14-18-|
|-11----11-11-13-14----(14)-------|
|---------------------------------|
|---------------------------------|
|---------------------------------|
|-11-11-11-11----14-14--14--14----|
   E  E  E  E     E  E   E   E


   Q     +S   E  S  Q     +S   E  S   Q   +S  E  S Q    +S  E S
|-16----(16)---------------------13-|--------------7--------9-7-|
|------------19-18-16----(16)-16----|-7---(7)-9-11-----(12)-----|
|-----------------------------------|---------------------------|
|-----------------------------------|---------------------------|
|-----------------------------------|---------------------------|
|-16-16--16--16----16-16--16--16----|-7-7--7--7--7-7-7---7------|
   E  E   E   E     E  E   E   E      E E  E  E  E E E   E


  Q   Q   H        E   T  T S  E   T  T  S  E   T  T  S  E   T  T  S
|-6-------6-----|--8----------10-----------11-----------13-----------|
|-----9---------|----------------------------------------------------|
|---------------|----------------------------------------------------|
|---------------|-10--10------12--12-------13--13-------15--13-------|
|---8-8-8-8-----|--------10----------12-----------13-----------15----|
|------------6--|--8--------8-10--------10-11--------11-13--------13-|
    E E E E  H     


   E   T  T S  E   T  T  S  E   T  T  S  E   T  T  S    E   T  T S  E   T  T  S  E   T  T  S  E   T  T  S
|--8----------10-----------11-----------13-----------|--8----------10-----------11-----------13--------------|
|----------------------------------------------------|-------------------------------------------------------|
|----------------------------------------------------|-------------------------------------------------------|
|-10--10------12--12-------13--13-------15--13-------|-10--10------12--12-------13--13-------15--13----------|
|--------10----------12-----------13-----------15----|--------10----------12-----------13-----------15-------|
|--8--------8-10--------10-11--------11-13--------13-|--8--------8-10--------10-11--------11-13--------13----|


   Q   Q  Q   Q     E  T  T S  E  T  T  S  E  T  T  S  E  T  T  S
|-11--10--8--10--|--8---------10----------11----------13----------|
|----------------|------------------------------------------------|
|----------------|------------------------------------------------|
|------------12--|-10-10------12-12-------13-13-------15-13-------|
|-----10--8--12--|-------10---------12----------13----------15----|
|-11--10--8--10--|--8-------8-10-------10-11-------11-13-------13-|


   E  T  T S  E  T  T  S  E  T  T  S  E  T  T  S    E  T  T S  E  T  T  S  E  T  T  S  E  T  T  S
|--8---------10----------11----------13----------|--8---------10----------11----------13-------------|
|------------------------------------------------|---------------------------------------------------|
|------------------------------------------------|---------------------------------------------------|
|-10-10------12-12-------13-13-------15-13-------|-10-10------12-12-------13-13-------15-13----------|
|-------10---------12----------13----------15----|-------10---------12----------13----------15-------|
|--8-------8-10-------10-11-------11-13-------13-|--8-------8-10-------10-11-------11-13-------13----|


   Q    Q   Q   S S  S  S   W          H    H      H    H
|-15---13--16--15---15-15-|----------|-----------|-----------|
|-------------------------|----------|-----------|-----------|
|-------------------------|----------|-----------|-----------|
|-17---15--18----------17-|----------|------0----|-----------|
|-------------------------|----------|-----------|-1---------|
|-15----------------15-15-|----------|------1----|------1----|


  W
|------*|
|------*|
|------*|
|------*|
|------*|
|-3----*|


Duration Legend
---------------
W - whole; H - half; Q - quarter; E - 8th; S - 16th; T - 32nd; X - 64th; a - acciaccatura
+ - note tied to previous; . - note dotted; .. - note double dotted
Uncapitalized letters represent notes that are staccato (1/2 duration)
Irregular groupings are notated above the duration line
Duration letters will always appear directly above the note/fret number it represents the
duration for.  Duration letters with no fret number below them represent rests.  Multi-
bar rests are notated in the form Wxn, where n is the number of bars to rest for.  Low
melody durations appear below the staff

Tablature Legend
----------------
 h   - hammer-on
 p   - pull-off
 b   - bend
 pb  - pre-bend
 r   - bend release (if no number after the r, then release immediately)
 /\  - slide into or out of (from/to "nowhere")
 s   - legato slide
 S   - shift slide
  - natural harmonic
[n]  - artificial harmonic
n(n) - tapped harmonic
 ~   - vibrato
 tr  - trill
 T   - tap
 TP  - trem. picking
 PM  - palm muting
\n/  - tremolo bar dip; n = amount to dip
 \n  - tremolo bar down
 n/  - tremolo bar up
/n\  - tremolo bar inverted dip
 =   - hold bend; also acts as connecting device for hammers/pulls
 <>  - volume swell (louder/softer)
 x   - on rhythm slash represents muted slash
 o   - on rhythm slash represents single note slash

Misc Legend
-----------
 |  - bar
||  - double bar
||o - repeat start
o|| - repeat end
*|  - double bar (ending)
 :  - bar (freetime)
 $  - Segno
 &  - Coda
Tempo markers -  = BPM(8/16=s8/s16), where s8 = swing 8ths, s16 = swing 16ths


***************************************************************************************
* Generated using Power Tab Editor by Brad Larsen - http://powertab.guitarnetwork.org *
***************************************************************************************
Login or Register to remove this ad.

1 comment on Swordland

This is in pretty desperate

This is in pretty desperate need of reformatting. The tab seem solid otherwise, though.